>
 >
Paddle Out 5

Paddle Out 5 Guitar Tabs

Sublime - Paddle Out 5 chords, tabs, tablatures, lyrics

Guitar lessons | Add/correct | Request | Top 50 tabs Artists:  A B C D E F G H I J K L M N O P Q R S T U V W X Y Z 0-9

Paddle Out 5 Guitar Tabs – Sublime

CD, Sheet music, Poster

Do you like Paddle Out 5? Share with your friends now
TabsTabs v2Tabs v3Tabs v4Tabs v5
Bradley (Sublime) Nowell--
Paddle Out--
Solo!--
   
e|--------------|-------------|---------------|----------------|
B|--------------|-------------|---------------|----------------|
G|----5--4------|----5--4-----|----5--4-------|----------------|
D|-7--------5-7-|----------5--|-7--------5--7-|(7)\------------|
A|--------------|-------------|---------------|----------------|
E|--------------|-------------|---------------|----------------|

e|----------------------|---------------------|--------------------------|
B|----------------------|---------------------|--------------------------|
G|-----10----9----------|----10----9----------|-------10-----------------|
D|-12-------------10--12|---------------10----|-12----------12----10\----|
A|----------------------|---------------------|--------------------------|
E|----------------------|---------------------|--------------------------|

e|-----------------||
B|-----------------||
G|-----------------||
D|-----------------||
A|-----------------||
E|-13-----------1--||
     \\\\\\\\\\\  
tremelo picking^





Comments


Popular Sublime tabs & chords
All You Need 1 Bass Tabs
April 29, 1992 Bass Tabs
April Twenty-Ninth Nineteen Ninety-Two Bass Tabs
Date Rape 4 Bass Tabs
Thanx Bass Tabs
Greatest Hits Chords
What I Got Reprise Chords
Bad Fish 1 Tabs
Badfish Tabs
Legalize It Tabs


Song lyrics



↑ Back to top | Tablatures and chords are parodies/interpretations of the original songs. You may use it for private study, scholarship, research or language learning purposes only
© 2014 AZChords.com Contact us | Privacy policy | DMCA | Add/correct tabs | Request tabs | Top 50 tabs