» » »

Nine To Five Bass tabs (ver.1)

Artists:  A B C D E F G H I J K L M N O P Q R S T U V W X Y Z # 

Nine To Five Bass tabs (ver.1)

Sublime
Rating:
0/5 (0 votes)

Hard to play? Try these video lessons and learn fast.
                Intro (Part One)
G:----------------------------------
D:-------------------------5H7------
A:---------------------5H7-----5H7--
E:-5-5-5-5-5-5-5-5-5-5--------------

Intro (Part Two)
G:-----------------------------
D:-----------------------------
A:----------------------5-7----
E:-5-5-5-5-5-5-5-5-5-5------5--

Verse                                                     
G:--------------------------------------------------------
D:-----------------------------------------------------R--
A:-----------7-7-7-7--------5-5-4-------------7-7-7-7--5--
E:-5-5--7-9-----------5-5-7-------7--5-5-7-9--------------

Tail (First time only)
G:--------
D:--------
A:-5H7-5--
E:--------

Chorus
G:---------------------------------------------------------------
D:---------------------------------------------------------------
A:--------7-7-7--9-9-9---------5-5-4--------4-5--7-7-7-----------
E:-5-5-5----------------9-9-9--------7--5-5-------------9-7-5-7--

Bridge
G:----
D:----
A:-R--
E:-5--

Interlude
G:-----------------
D:-R--5-7----------
A:-5-------R----4--
E:---------5--7----

G:--------7H9------
D:-R--7H9-----7H9--
A:-7---------------
E:-----------------

Fill
G:-------------
D:-7-5---------
A:------7-5H6--
E:-------------


Song Structure:
Intro (P1,P2,P1,P1)
Verse * 2
Chorus
Bridge
Interlude
Bridge
Verse * 2
Chorus 
Intro Part One * 2
Fill
Bridge
Verse * 2
Chorus
            
Hard to play? Try these video lessons and learn fast. | Correct




comments powered by Disqus
↑ Back to top | Tablatures and chords are parodies/interpretations of the original songs. You may use it for private study, scholarship, research or language learning purposes only