» » »

New Realization Bass tabs (ver.3)

Artists:  A B C D E F G H I J K L M N O P Q R S T U V W X Y Z # 

New Realization Bass tabs (ver.3)

Sublime
Rating:
0/5 (0 votes)

Hard to play? Try these video lessons and learn fast.
                Tuning:EADG
Group:Sublime


Intro
G:---------------------------------------------------------------|
D:---------------------------------------------------------------|
A:---------------------------------------------------------------|
E:---------------------------------------------------------------|

Verse1
G:---------------------------------------------------------------|
D:---------------------------------------------------------------|
A:---------------------------------------------------------------|
E:---------------------------------------------------------------|


G:---------------------------------------------------------------|
D:---------------------------------------------------------------|
A:---------------------------------------------------------------|
E:---------------------------------------------------------------|


G:---------------------------------------------------------------|
D:---------------------------------------------------------------|
A:---3-333333-0-000000-3-333333-5-5-3-1--------------------------|
E:---------------------------------------------------------------|


G:---------------------------------------------------------------|
D:---------------------------------------------------------------|
A:---------------------------------------55555555-333-111--------|
E:---3-333333-0-000000-3-333333-0-000000-------------------------|

Verse2
G:---------------------------------------------------------------|
D:---------------------------------------------------------------|
A:---------------------------------------------------------------|
E:---3-333333-0-000000-3-333333-0-000000-------------------------|


G:---------------------------------------------------------------|
D:---------------------------------------------------------------|
A:---------------------------------------------------------------|
E:---3-333333-0-000000-3-333333-0-000000-------------------------|


G:---------------------------------------------------------------|
D:---------------------------------------------------------------|
A:---3-333333-0-000000-3-333333-5-55-3-1-------------------------|
E:---------------------------------------------------------------|


G:---------------------------------------------------------------|
D:---------------------------------------------------------------|
A:---------------------------------------55555555-333-111--------|
E:---3-333333-0-000000-3-333333-0-000000-------------------------|

BasslineSolo
G:---------------------------------------------------------------|
D:-------12----12-----9--9------12----12-----9--9----------------|
A:---1010--1010--10\77-77-7/1010--1010--10\77-77-7---------------|
E:---------------------------------------------------------------|

G:---------------------------------------------------------------|
D:---------------------------------------------------------------|
A:---3-3333333333--5-5555555531----------------------------------|
E:---------------------------------------------------------------|

Verse3
G:---------------------------------------------------------------|
D:---------------------------------------------------------------|
A:---------------------------------------------------------------|
E:---3-333333-0-000000-3-333333-0-000000-------------------------|


G:---------------------------------------------------------------|
D:---------------------------------------------------------------|
A:---------------------------------------------------------------|
E:---3-333333-0-000000-3-333333-0-000000-------------------------|


G:---------------------------------------------------------------|
D:---------------------------------------------------------------|
A:---3-333333-0-000000-3-333333-5-55-3-1-------------------------|
E:---------------------------------------------------------------|


G:---------------------------------------------------------------|
D:---------------------------------------------------------------|
A:---------------------------------------55555555-333-111--------|
E:---3-333333-0-000000-3-333333-0-000000-------------------------|

Verse4
G:---------------------------------------------------------------|
D:-------12----12-----9--9------12----12-----9--9----------------|
A:---1010--1010--10\77-77-7/1010--1010--10\77-77-7---------------|
E:---------------------------------------------------------------|


G:---------------------------------------------------------------|
D:-------12----12-----9--9------12----12-----9--9----------------|
A:---1010--1010--10\77-77-7/1010--1010--10\77-77-7---------------|
E:---------------------------------------------------------------|


G:---------------------------------------------------------------|
D:---------------------------------------------------------------|
A:---3-333333-0-000000-3-333333-5-55-3-1-------------------------|
E:---------------------------------------------------------------|


G:---------------------------------------------------------------|
D:---------------------------------------------------------------|
A:---------------------------------------------------------------|
E:---3-333333-0-000000-3-333333-0-000000-------------------------|

Ending
G:---------------------------------------------------------------|
D:---------------------------------------------------------------|
A:---5---3-1-----------------------------------------------------|
E:-----------3~~~~~~~--------------------------------------------|


Sublime Forever :)
            
Hard to play? Try these video lessons and learn fast. | Correct




comments powered by Disqus
↑ Back to top | Tablatures and chords are parodies/interpretations of the original songs. You may use it for private study, scholarship, research or language learning purposes only