» » »

Sublime, Johnny Too Bad Bass tabs (ver.1)

Artists:  A B C D E F G H I J K L M N O P Q R S T U V W X Y Z # 

Johnny Too Bad Bass tabs (ver.1)

Sublime Tabs
Rating:
0/5 (0 votes)
Johnny Too Bad lessons Tabs too difficult? Try these video lessons and learn fast
                G|-------------------------------------------------------|
D|-------------------------------------------------------|
A|-----------3-3-----------------------------------------|
E|3-5h6p5-3------1-1-------------------------------------|

variate between these two, listen to the song to know when to use the second one

G|-------------------------------------------------------|
D|-------------------------------------------------------|
A|---------3-3--8-8--------------------------------------|
E|3-5h6p5------------------------------------------------|
This is pretty close to correct, not too sure about the chorus part however
G|-------------------------------------------------------|
D|5-3------5-3-------------------------------------------|
A|-----5-5-----5-5---3-3---------------------------------|
E|----------------------1-1------------------------------|

"Running down the Road..."
G|----------------------------------5--------------------|
D|-----------------7--7---7--7----5--5-------------------|
A|--5-5-----5-5--5--5---5--5----3-----3-3-3---5-5-----5-5|
E|3-----3-3---------------------------------3-----3-3----|

G|-------------------------------------------------------|
D|-------------------------------------------------------|
A|--------3-3-3-2p0--------------------------------------|
E|3-5h6p5-----------3------------------------------------|

G|-------------------------------------------------------|
D|-------------------------------------------------------|
A|-------------------------------------------------------|
E|3-3-3--6-6-6-3-3-3--6-6-6------------------------------|
            
Submit corrections

comments powered by Disqus
↑ Back to top | Sublime Bass for Johnny Too Bad. Lyrics for acoustic guitar and electric guitar. Tablatures and chords are parodies/interpretations of the original songs. You may use it for private study, scholarship, research or language learning purposes only