» » »

Hong Kong Phooey Bass tabs (ver.3)

Artists:  A B C D E F G H I J K L M N O P Q R S T U V W X Y Z # 

Hong Kong Phooey Bass tabs (ver.3)

Sublime
Rating:
0/5 (0 votes)

Hard to play? Try these video lessons and learn fast.
                Band:  Sublime




Intro:
-----------------10-1010--7-77--5-55-----------|
-------------------------------------7-5-------|
-1~--2~---4~-----------------------------8-----|
-----------------------------------------------|

Pre-Chorus:
----------------------------------------|
----------------------------------------|
-5--5-----5--5-----5--5-----5--5--------|
------5-8------5-8------5-8------5-8----|

Chorus: "Hooong Kooong Poooey"
------------------------------------------------------|
------------------------------------------------------|
-5---5-----5---5-----5---5-----5---5-----5---5-----5--|
-------5-8-------5-8-------5-8-------5-8-------5-8----|

--------------------------------|
--------------------------------|
-5-----5---5-8888-5---5-5-------|
---5-8--------------------5-----|

Verse: "Oh he's got style, a groovy smile"
------7-7--5----------7-5------------|
-------------7------------7----------|
-5--5-------------5-5------------5---| x2
-------------------------------------|

Chorus

Bridge:
--------------------------------7-77--7h10p7-7---|
------------5-55--7-77--10-1010------------------|
-5-55--8-88--------------------------------------|
-------------------------------------------------|

-10-1010--7-77--5-55---------|
---------------------7-5-----|
-------------------------8---|
-----------------------------|

Interlude: (sickest bass line)
---------------------------------------------------|
-3-3-----3-3----------------3-3-----3-3------------|
-----5-5-----5-3---3----3h5-----5-5-----5p3---3----|
-----------------5--------------------------5------|

------------------------------------------------------|
-----3-3-----3-3----------------3-3-----3-3-----------|
-3h5-----5-5-----5p3---3----3h5-----5-5-----5p3---3---|
---------------------5--------------------------5-----|

Pre Chorus 2:
-------------------12-14-----------------------|
----------------12-----------------------------|
-5---5-----5--------------5-8888-5---5---------|
-------5-8-----------------------------5-8-----|

Chorus 2:
-------------------12-14------------------------------------|
----------------12------------------------------------------|
-5---5-----5-------------5---5-----5---5-8888-5---5-----5---|
-------5-8---------------------5-8------------------5-8-----|

----12-14-----------------------|
-12-----------------------------|
----------5---5-----5---5-5-----|
----------------5-8---------5---|

Verse

Chorus 3:
-------------------------------------------------------|
-------------------5-----------------------------------|
-5---5-----5---5h8------5-----5---5-----5---5-----5----|
-------5-8----------------5-8-------5-8-------5-8------|

---------------------------------|
---------------------------------|
-5-----5---5-----5---5-----5-----|
---5-8-------5-8-------5-8-------|

Bridge 2:
--------------------------------7-77---10p7-10p7-7---|
------------5-55--7-77--10-1010----------------------|
-5-55--8-88------------------------------------------|
-----------------------------------------------------|

-10-1010--7-77--5-55----------|
---------------------7-5------|
-------------------------8----|
------------------------------|

Interlude:
-------------|      ---------------------55-77---|
-------------|      ------------------77---------|
-5555-00-33--| x14  --5555-00-33---55------------| x1
-------------|      -----------------------------|

Chorus 4: "Hooong Kooong Phoooey, Yeah he's the #1 Super Guy"
---------------|
---------------|
--5555-00-33---| x8
---------------|

Verse 2: "YEAH WELL HE'S GOT STYLE! A GROOVY SMIlE!"
------------------------------------------777555-----777555------|
------------------------------------------------750--------750---|
-5558-5558-5558-5558-5558-5558-5558-5555-------------------------|
-----------------------------------------------------------------|

-777555-----777555--------------|
-------750--------750-----0-----|
--------------------------------|
--------------------------------|

Chorus 5: "HOOONG KOOONG PHOOOEY!!"
-------------------------------------------------------------------|
------------------------------------------------55777777777777-----|
-5555555555555555----55555555-555555555555555588-------------------|
-----------------5588----------------------------------------------|

Bridge 3:
------------------------------7777--10-7---10-1010--7-77--5-55-----------|
-----------5555-7777-10101010----------------------------------7-5-------|
-5555-8888---------------------------------------------------------8-5~--|
-------------------------------------------------------------------------|

Then play he Sickest Bass Line interlude for the rest of the song.

This is an awesome song especially on bass.
Enjoy!!
            
Hard to play? Try these video lessons and learn fast. | Correct




comments powered by Disqus
↑ Back to top | Tablatures and chords are parodies/interpretations of the original songs. You may use it for private study, scholarship, research or language learning purposes only