>
 >
Had A Dat

Had A Dat Bass Tabs

Sublime - Had A Dat chords, tabs, tablatures, lyrics

Guitar lessons | Add/correct | Request | Top 50 tabs Artists:  A B C D E F G H I J K L M N O P Q R S T U V W X Y Z 0-9

Had A Dat Bass Tabs – Sublime

CD, Sheet music, Poster

Do you like Had A Dat? Share with your friends now
Bass TabsBass Tabs v2Bass Tabs v3
Intro 
G-------------------------------------------------------- 
D-------------------------------------------------------- 
A--3--3-3--3-3--3-3--3-7--7-7--7-7----------------------- 
E-------------------------------------------------------- 


 0:06 - Part A 
G------------------------------------------------------------------------------- 
D------------2-2-2-2-------------2--------------2-2-2-2------------------------- 
A----3-5-3-2-----------3-5-3-2----------3-5-3-2-----------3-5-3-2--------------- 
E--5-----------------5---------0---0--5-----------------5---------0-0-0-0------- 


 0:19 
G------------------------------------------------------------------------------- 
D------------2-2-2-2------------------------------2-2-2-2----------------------- 
A----3-5-3-2------------3-5-3-2-----------3-5-3-2------------3-5-3-2------------ 
E--5------------------5---------0x-0-0--5------------------5---------0x-0-0----- 


 0:33 
G------------------------------------------------------------------------------- 
D------------2x-2-2--------------2--------------2-2-2-2------------------------- 
A----3-5-3-2-----------3-5-3-2----------3-5-3-2------------3-5-3-2-------------- 
E--5-----------------5---------0---0--5------------------5---------0-0-0-0x-0--- 


 0:47 
G------------------------------------------------------------------------------- 
D------------2-2-2-2-------------------------------2x-2-2----------------------- 
A----3-5-3-2------------3-5-3-2-----------3x-3-5-2-----------3-5-3-2------------ 
E--5------------------5---------0x-0-0--5------------------5---------0-0-0-0x-0- 


 1:01 - Part B 
G-------------------------------------------------------- 
D----------2----------2--2-2--2--2----------------------- 
A----3-5-3----3-3--3------------------------------------- 
E--5----------------------------------------------------- 


 1:08 - Part C 
G------------------------------------------------------------------------------- 
D------------2x-2-2--------------2---2--------------2-2-2-2--------------2---2-- 
A----3-5-3-2-----------3-5-3-2--------------3-5-3-2------------3-5-3-2---------- 
E--5-----------------5---------0---0---0--5------------------5---------0---0---- 


 1:22 
G--------------4---------------------------------------------------------------- 
D------------2---2----------------------------------2x---2---------------------- 
A----3-5-3-2----------3-5-3-2---------------3-5-3-2----2------3-5-3-2----------- 
E--5----------------5---------0-0-0-0x-0--5-----------------5---------0x-0-0---- 


 1:35  
G------------------------------------------------------------------------------- 
D--------------2-2-2-2--------------2---2--------------------------------------- 
A----3-5-3-2--------------3-5-3-2--------------3-5-3x-2-2-2-2------------------- 
E--5---------0----------5---------0---0---0--5----------------0-0--------------- 

  
 1:44 - Part D 
G-------------------------------------------------------- 
D------------2x---2-------------------2--2-2-2-3-2-2----- 
A----3-5-3-2----2------3--3-3--3-2-3--------------------- 
E--5-----------------5----------------------------------- 


 1:54 - Part E 
G----------------------------------4-------------------------------------------- 
D--------------2---2-------------2---2--------------------------------------2--- 
A----3-5-3-2------------3-5-3x-2----------3-5-3-2--------------3-5-3-3-2x-2----- 
E--5---------0---0----5-----------------5---------0x-0x-0-0--5------------------ 


 2:08 
G------------------------------------------------------------------------------- 
D--------------2x--------------4---------------------2x--------------2-2x-2----- 
A----3-5-3-2-----------3-5-3-2---2--2-2----3-3-5-2-----------3-5-3-2------------ 
E--5---------0----0--5-------------------5---------0----0--5-------------------- 


 2:21 
G------------------------------------------------------------------------------- 
D------------------------------2x---2-2--------------2---2---------------------- 
A----3-5-3-2-----------3-5-3-2----2--------3-5-3-2------------3-5-3-2----------- 
E--5---------0x-0-0--5-------------------5---------0---0----5---------0x--0x-0-0 


 2:34 
G------------------------------------------------------------------------------- 
D------------2-2-2-2--------------2---2------------2-2-2-2---------------------- 
A----3-5-3-2------------3-5-3-2------------3-5-3-2------------3-5-3-2----------- 
E--5------------------5---------0---0----5------------------5---------0x-0x-0x-0 


 2:47 - Part F 
G-------------------------------------------------------- 
D------------------------2--2-2---2x-2x------------------ 
A--0-0\3--3-3---3---3-3x--------3------------------------ 
E-------------3---3-------------------------------------- 


 2:53 - Part G 
G------------------------------------------------------------------------------- 
D------------------------2---2------------2-2-2-2------------------------------- 
A----3-5-3-2----3-5-3x------------3-5-3-2------------3-5x----------------------- 
E--5----------5--------0---0----5------------------5------0-0-0-0--------------- 


 3:07 
G------------------------------------------------------------------------------- 
D--------------------------------------------------4---------------------------- 
A----3-5-3-2-----------3-5-3-2--2--2-2----3-5-3-2----2-2-----3x----------------- 
E--5---------0x-0-0--5------------------5-----------------5------0x-0x-0x-0--5-- 


 3:21 
G------------------------------------------------------------------------------- 
D------------------------------------------------------------------------------- 
A-----3--5--3--2------3-5-3-2--------------------------------------------------- 
E--5---------------5------------------------------------------------------------





Comments


Popular Sublime tabs & chords
5446 1 Bass Tabs
Stp Bass Tabs
Ballad Of Johnny Butt 1 Chords
Santeria Chords
Drunk Drivin Tabs
New Realization Tabs
Santeria Tabs
Steppin' Razor Tabs
What Happened Intro 1 Tabs
Boss Dj 2 Ukulele


Song lyrics



↑ Back to top | Tablatures and chords are parodies/interpretations of the original songs. You may use it for private study, scholarship, research or language learning purposes only
© 2014 AZChords.com Contact us | Privacy policy | DMCA | Add/correct tabs | Request tabs | Top 50 tabs