» » »

Sublime, Greatist Hits Bass tabs (ver.1)

Artists:  A B C D E F G H I J K L M N O P Q R S T U V W X Y Z # 

Greatist Hits Bass tabs (ver.1)

Sublime Tabs
Rating:
0/5 (0 votes)
Greatist Hits lessons Tabs too difficult? Try these video lessons and learn fast
                This is a cool song. That's why i'm tabbing it. If it wasn't cool I wouldn't tab
it. Duh. Anyway this song is kinda repetitive but it does do some big variations
based on the original riffs.

Tuning: EADG

Intro ((5) That's just the first note of the song You can only kinda hear it)
G|------------------------9--------------------------------------|
D|----------------------7----------------------------------------|
A|--------7-----7-----7------------------------------------------|
E|-(5)--5---3/5---3/5-------5555-8888-5555-8888-5555-8888-5\-----|

Verse version 1
G|---------------------------------------------|
D|--5--5---5--5--3--3---3--3--5--5---5--5--3---|Pause then repeat 
A|--------5------------3------------5----------|
E|-3--3--3---3--1--1--1---1--3--3--3---3-------|

"this man makin money i know" part (PART 3)
G|---------------------------------------------------------|
D|---------------------------------------------------------|
A|---------------------------------------------------------|
E|-12-0-7h9-10-10-10-10-10-9-12-0-7h9-10-10-10-10-10-9-7-7-|

G|-----------------------------------------------------|
D|-----------------------------------------------------|
A|-----------------------------------------------------|
E|-7h9-10-10-10-10-10-9-12-0-7h9-10-10-10-10-10-9-12-0-|

G|----------------------------------------------------|
D|----------------------------------------------------|
A|----------------------------------------------------|
E|-7h9-10-10-10-10-10-9-7-7--7h9-10-10-10-10-10-9-12\-|

"got my greatist..." part (PART 4)
G|-----------------------------------|
D|-------------0-0-------------------|
A|-0-0-0-12-12-----10-10-0-0-5-5-----|repeat three times then
E|-------------------------------0-0-|

G|---------------------------------------|
D|-------------0-0-------0-0-------------|
A|-0-0-0-12-12-----10-10-----10-10-5-5\--|
E|---------------------------------------|

(PART 5)
G|--------------------------------------------------------------------|
D|--------------------------------------------------------------------|
A|--------------------------------------------------------------------|
E|-7777-10-10-10-10-7777-10-10-10-10-9-12-0-7h9-10-10-10-10-10-9-12-0-|

G|-----------------------------------------------------------|
D|-----------------------------------------------------------|Pause then...
A|-----------------------------------------------------------|
E|-7h9-10-10-10-10-10-9-12-0-7h9-10-10-10-10-10-9-7-7-7h9-10-|

G|-----------------------------------------------------|
D|-----------------------------------------------------|
A|-----------------------------------------------------|
E|-12-0-10-10-10-10-10-9-12-0-7h9-10-10-10-10-10-9-7-7-|

G|--------------------------|
D|--------------------------|
A|--------------------------|
E|-7h9-10-10-10-10-10-9-12\-|

"Wake up in the mornin" part with all the echo in his voice (VERSE VERSION 2)
G|------------------------------------------|
D|---3-3-3-3--5-5-5-5--3-3-3-3--5-5-5-5-3\--|
A|--3--------5--------3--------5------------|
E|-1--1-1-1-3--3-3-3-1--1-1-1-3--3-3-3------|

"It's the Ziggen's greatist hit's" part (OUTRO)
G|-------------------------------------------------------------|
D|-----------------------7h9-9---------------------------------|
A|---------------------7------10-5h6h7-7-7-7-7-7-7-------------|
E|-12-12-12-12-3-3-3-3-----------------------------3-3-3-3-3/7-|

SONG ORDER!!!!
INTRO
VERSE VERSION 1
PART 3
PART 4
PART 5
PART 4
VERSE VERSION 2
PART 5 WITHOUT THE PAUSE
OUTRO
            
Submit corrections

comments powered by Disqus
↑ Back to top | Sublime Bass for Greatist Hits. Lyrics for acoustic guitar and electric guitar. Tablatures and chords are parodies/interpretations of the original songs. You may use it for private study, scholarship, research or language learning purposes only