» » »

Sublime, Greatest Hits Bass tabs (ver.3)

Artists:  A B C D E F G H I J K L M N O P Q R S T U V W X Y Z # 

Greatest Hits Bass tabs (ver.3)

Sublime Tabs
 Rating:
4/5 (4 votes)
Greatest Hits lessons Tabs too difficult? Try these video lessons and learn fast
1
                -----------------------------------------------------------------------------
			     Greatest Hits - Sublime
-----------------------------------------------------------------------------

Intro
G|-----------------------------9-|
D|-----2-------2-----------7-----|
A|-0-------0-------0---7---------|
E|-------3-------3---------------|

G|-----------------| X4
D|-----------------|
A|-0-0-0-0-3-3-3-3-|
E|-----------------|

Verse "Wake up in the morning and it's hard to live"
G|-----------------------------------------------------------------| X2
D|-------------------5---5---5---5---3---3---3---3---5---5---5---5-|
A|------------------5-5-----5-5-----3-3-----3-3-----5-5-----5-5----|
E|-1---------------3---3---3---3---1---1---1---1---3---3---3---3---|

Pre-Chorus "This man making money and i know"
G|---------------------------------------------------------|
D|-------------------------------------------------5-5-5---|
A|--------7-------555555--7-----75-------------------------|
E|----------0---57------57--0-----555555557-7-----3--------|

G|---------------------------------------------------------|
D|---------------------------------------------------------|
A|-7-------555555--7-----75----------------555555557-------|
E|---0---57------57--0-----555555557-7---75----------------|

Chorus "Got my greatest hits"
G|----------------------------------------------------------------|X2
D|--------777-----555-------------555-----777-----555-------------|
A|-55--------5-5-----3-3--555----------------5-5-----3--3----3--3-|
E|---3-3---------------------3-3-----3-3--------------------------|

Verse 2
G|---------------------------------------------------------------------------|
D|---------------------------------------------------------------------------|
A|-7-7---7---------5-5---5---------7-------555555--7-----75----------------5-|
E|--------555555555-------777777777--0---57------57--0-----555555557-7---77--|

G|---------------------------------------------------------------------------|
D|---------------------------------------------------------------------------|
A|-7-------555555--7-----75----------------555555557-------------------------|
E|---0---57------57--0-----555555557-7---75----------------------------------|

Chorus

Verse 3 (Verse 1 with a long pause)

Verse 4 (Same as Verse 2)

Outro "It's the sickest greatest hits"
G|---------------------------------------------------------------------------|
D|---------------------7h9-7h9-5--5-----------------------------------6------|
A|-7--77-7---------7--7------------5-6--7--7--7------------------------------|
E|---------3--33535------------------------------3--3--3--0------------------|


| /  slide up
| \  slide down
| h  hammer-on
| p  pull-off
| ~  vibrato
| +  harmonic
| x  Mute note
==============================================================================
            
Submit corrections

comments powered by Disqus
↑ Back to top | Sublime Bass for Greatest Hits. Lyrics for acoustic guitar and electric guitar. 1 Tablatures and chords are parodies/interpretations of the original songs. You may use it for private study, scholarship, research or language learning purposes only