>
 >
Greatest Hits 1

Greatest Hits 1 Bass Tabs

Sublime - Greatest Hits 1 chords, tabs, tablatures, lyrics

Guitar lessons | Add/correct | Request | Top 50 tabs Artists:  A B C D E F G H I J K L M N O P Q R S T U V W X Y Z 0-9

Greatest Hits 1 Bass Tabs – Sublime

CD, Sheet music, Poster

Do you like Greatest Hits 1? Share with your friends now
Bass Tabs
Tuning: Standard (EADG)


 Intro
 |---------------------------|
 |-------------------------9-|
 |--------------------7-7----|
 |-5--0--3-5--0--3-5---------|

 |---------------------| Repeat 4x
 |---------------------|
 |-----------3--3-3--3-|
 |-5--5-5--5-----------|

 
 Verse 1: There are some weird timing issues, so listen to the song
 |---------------------------------------------------------| 
 |-----5------5------5-----5----------3-----3------3-----3-| repeat many
 |---5---5---------5---5------------3---3--------3---3-----| times.
 |-3--------3----3-------3--------1-------1----1-------1---|
 
 |-------------------------------------------------------|
 |-------------------------------------------------------|
 |-7-7-----5-5-5-5-5-5-----7-7--7--5---------------------|
 |-----5-7-------------5h7------------5-5-5-5-5-5-5--7-7-|
 
 |---------------------------------------------------------------------|
 |-----5---------------------------------------------------------------|
 |-------5-------7-7-----5-5-5-5-5-5-----7-7--7--5---------------------|
 |-3-3-----3--3------5-7-------------5h7------------5-5-5-5-5-5-5--7-7-|

 |-------------------------|
 |-------------------------|
 |-------5-5-5-5-5-5-5---7-|
 |-7--5--------------------|
 
 
 Chorus:
 |-------------------------------------------------|
 |-----------5--7-7---------5-5--------------------|
 |-5-5--------------5-5--5------3-3--3--5-5--------|
 |------3-3----------------------------------3-3---|

 |------------------------------------------|
 |-----------5--7-7---------5-5-------5---5-|
 |-5-5--------------5-5--5------3-3---3---3-|
 |------3-3---------------------------------|

 |-------------------------------------------------|
 |-----------5--7-7---------5-5--------------------|
 |-5-5--------------5-5--5------3-3--3--5-5--------|
 |------3-3----------------------------------3-3---|

 |----------------------------------------------|
 |-----------5--7-7---------5-5---------5-5-----|
 |-5-5--------------5-5--5------3-3--5------3-3-|
 |------3-3-------------------------------------|

 
 Verse 2:
 |------------------------------------------------------|
 |------------------------------------------------------|
 |-7-7--7---------------------5-5--7-5------------------|
 |--------7--5-5-5-5-5-5-5h7------------7-7-7-7-7-7-5h7-|


 |------------------------------------------------------------------|
 |------------------------------------------------------------------|
 |-7--------5-5-5-5-5-5------7----7-5-------------------------------|
 |---0--5h7-------------5h7----0------5-5-5-5-5-5-5--7-7--7-5--3\15-|
 
 
 |--------------------------------------------------------------|
 |--------------------------------------------------------------|
 |-7--------5-5-5-5-5-5------7-----7p5--------------------------|
 |---0--5h7-------------5h7----0--------5-5-5-5-5-5-5--7-7--7p5-|


 |------------------------|
 |------------------------|
 |------5-5-5-5-5-5-5---7-|
 |-7p5--------------------|

 
 Chorus:
 |-------------------------------------------------|
 |-----------5--7-7---------5-5--------------------|
 |-5-5--------------5-5--5------3-3--3--5-5--------|
 |------3-3----------------------------------3-3---|

 |------------------------------------------|
 |-----------5--7-7---------5-5-------------|
 |-5-5--------------5-5--5------3-3---3---3-|
 |------3-3---------------------------------|

 |-------------------------------------------------|
 |-----------5--7-7---------5-5--------------------|
 |-5-5--------------5-5--5------3-3--3--5-5--------|
 |------3-3----------------------------------3-3---|

 |---------------------------------------------------|
 |-----------5--7-7---------5-5---------5-5----------|
 |-5-5--------------5-5--5------3-3--5------3-3----3-|
 |------3-3------------------------------------------|


 Verse 3: There is a log pause before this kicks in.
 |----------------------------------------------------|
 |-----3-----3------3-----3------5-----5------5-----5-|
 |---3---3--------3---3--------5---5--------5---5-----|
 |-1-------1----1-------1----3-------3----3-------3---|
 

 Verse 4:
 |------------------------------------------------------|
 |------------------------------------------------------|
 |-7-7--7---------------------5-5--7-5------------------|
 |--------7--5-5-5-5-5-5-5h7------------7-7-7-7-7-7-5h7-|


 |-------------------------------------------------------|
 |-------------------------------------------------------|
 |-7--------5-5-5-5-5-5------7----7-5--------------------|
 |---0--5h7-------------5h7----0------5-5-5-5-5-5-5--7-7-|


 |------------------------|
 |------------------------|
 |------------------------|
 |-7-5--3--3-3-3--3-3-3-3-|
 

 |--------------------------------------------------------------|
 |--------------------------------------------------------------|
 |-7--------5-5-5-5-5-5------7-----7p5--------------------------|
 |---0--5h7-------------5h7----0--------5-5-5-5-5-5-5--7-7--7p5-|


 |------------------------|
 |------------------------|
 |------5-5-5-5-5-5-5---7-|
 |-7p5--------------------|


 |------------------------------------------------|
 |------------------------------7h9-7h9---5-5-----|
 |-7--7-7-7-------3h5-3h5--7--7---------------5-5-|
 |-----------3--3---------------------------------|

 |----------------------------------|
 |----------------------------------|
 |-7---7---7------------------------|
 |--------------3---3----3------(0)-|

 |Key|

h  = Hammer On

/  = Slide Up

5
3  = Bass Chord

p  = Pull Off

() = Let Ring





Comments


Popular Sublime tabs & chords
Dont Push 2 Bass Tabs
Pool Shark Bass Tabs
Waiting For My Ruca 1 Bass Tabs
What Happened? 1 Bass Tabs
Lou Dog Went To The Moon Intro Chords
Marley Medley Guava Jelly This Train Chords
Garden Grove 1 Tabs
Let's Go Get Stoned Tabs
Under My Vodoo Intro Tabs
What Happened Intro 1 Tabs


Song lyrics



↑ Back to top | Tablatures and chords are parodies/interpretations of the original songs. You may use it for private study, scholarship, research or language learning purposes only
© 2014 AZChords.com Contact us | Privacy policy | DMCA | Add/correct tabs | Request tabs | Top 50 tabs