» » »

Garden Grove Bass tabs (ver.1)

Artists:  A B C D E F G H I J K L M N O P Q R S T U V W X Y Z # 

Garden Grove Bass tabs (ver.1)

Sublime
Rating:
0/5 (0 votes)

Hard to play? Try these video lessons and learn fast.
                (2)
:-------------------------------------------:
:---5h7\\2--------------5-7-----------------:
:-7--------0-3-4-0----7---------------------:
:-------------------------------------------:

Verse:
:-------------------------------------------:
:---------5-7-------------------------------:
:-------7-----------------------------------:
:--55x5-------------------------------------:

Bridge:
:-------------------------------------------:
:-------------------5-7---------------------:x4
:-------------------------------------------:
:--5-555-555-555-55-------------------------:

Fill:
:-------------------------------------------:
:-------------------------------------------:
:-------4-5----2-5-2-----4-5-----2-5-2------:
:--5---3---5--3-----5---3---5--3------------:

Bridge:
:-------------------------------------------:
:-------------------5-7---------------------:x4
:-------------------------------------------:
:--5-555-555-555-55-------------------------:

Verse:
:-------------------------------------------:
:---------5-7-------------------------------:
:-------7-----------------------------------:
:--55x5-------------------------------------:
            
Hard to play? Try these video lessons and learn fast. | Correct




comments powered by Disqus
↑ Back to top | Tablatures and chords are parodies/interpretations of the original songs. You may use it for private study, scholarship, research or language learning purposes only