» » »

Sublime, Garden Grove Bass tabs (ver.3)

Artists:  A B C D E F G H I J K L M N O P Q R S T U V W X Y Z # 

Garden Grove Bass tabs (ver.3)

Sublime Tabs
Rating:
0/5 (0 votes)
Garden Grove lessons Tabs too difficult? Try these video lessons and learn fast
                This is the first song of the last album by one of the greatest bands of all time. This 
just my interpretation of it, but I'm pretty positive its 100% This is the song in its 

Intro
(listen for when to come in)
G|-------------------------------------|
D|----5/2-------------------5-7--------|
A|---7-----0-3-4-0--0-----7------------|
E|-------------------------------------|


Verse
(This is just the basic pattern, change it up if you want. Be creative.)
G|---------------|
D|----------5-7--| x11
A|--------7------|
E|--5-5----------|

OR

"This ain't no funky reggae party.."
G|---------------------------------|    Even though I tabbed this
D|----------5-7------------5-7-----|    I suggest IGNORING this part
A|--------7--------------7---------|    because I personally think
E|--5-5----------77-77-------------|    it does not belong.


Bridge	"If you only knew.."
G|---------------------------|
D|----------------------5-7--|x4
A|---------------------------|
E|--3h5553h5553h5553h555-----|


Fill
(These are the notes, put your own zang to it)
G|-------------------------------------------------|
D|-------------------------------------------------|
A|---------2-5-------2-5-2--------2-5-------2-5-2--|
E|--5---33-----5---3-------5---33-----5---33-------|

(This is the way I personally like to play it.)
G|-------------------------------------------------|
D|-------------------------------------------------|
A|--------22-5-------225522-------2-25------2-5-2--|
E|--5--33------5/--33------5/--33------5/-33-------|


Bridge
G|---------------------------|
D|----------------------5-7--|x4
A|---------------------------|
E|--3h5553h5553h5553h555-----|


Verse
Listen for breaks, and have fun with this part. Played til outro.
G|--------------|
D|---------5-7--|
A|-------7------|
E|--5-5---------|


Outro (3:50) Just Listen to get the feel. You'll know what i mean.
G|---------------------------------------------------------------|
D|---------------------------------------------------------------|
A|-------------------5h7777777-------77-77-7------5h7-7-7-7------|
E|--5-5-5-3-3-3-5-5-5----------5-5-5---------5-5-5----------5-5--|

This, my fellow bassits/Sublime fans, is how Garden Grove is played. Enjoy!! =D
            
Submit corrections

comments powered by Disqus
↑ Back to top | Sublime Bass for Garden Grove. Lyrics for acoustic guitar and electric guitar. Tablatures and chords are parodies/interpretations of the original songs. You may use it for private study, scholarship, research or language learning purposes only