» » »

Garden Grove Tabs (ver.1)

Artists:  A B C D E F G H I J K L M N O P Q R S T U V W X Y Z # 

Garden Grove Tabs (ver.1)

Sublime
Rating:
0/5 (0 votes)

Hard to play? Try these video lessons and learn fast.
                PROPS GO TO: rj

|-----------------------------------------------------------|
|-----------------------------------------------------------|
|--------------------------------------------------------0--|
|-----------2------2----0-------0-----------0-------0-------|
|---0-------0-----------------------------------------------|
|-------------------------------------3---------------------|
       We  took   this     trip       to    Gar-den      Grove

|-----------------------------------------------------------|
|-----------------------------------------------------------|
|--------------------2--------------------------------------|
|-2----2-------------2-----2--------------------0-----0-----|
|-----------0-----------------------------------------------|
|---------------------------------------3-------------------|
              it   smelt  like Lou-dog    in-side   the  van

|----------------------------------------------|--------------------------------------2-|
|-------------------------------------0--------|---------------2-----3--------0-------3-|
|-------------2----0--0--0--0------0-----------|-------2----------0--------2----2--4----|
|----2----2---2----------------0---------0--0--|-2---------2----------------------------|
|----------------------------------------------|-0--------------------------------------|
|----------------------------------------------|----------------------------------------|
     _________     Oh, yeah ______________      This  ain't no  funk - y   reg - gae _

|------------------------------------------5---|
|------------------0-------0----0----X-----5---|   
|-----4-----4^---2------0--0----0----X-----2---|
|------------------------------------------2---|
|----------------------------------------------|
|----------------------------------------------|
 ___ par - ty,  five  dol-lars  at   the door.

|-(5)---5------X-----5----------3----3----3/-|-------5----X---X---------3---3-----3----|
|-(5)---5------X-----5----------3----3----3/-|-------5----X---X---------X---X----------|
|-(2)----------X-----------------------------|-----------------------------------------|
|-(2)----------X-----------------------------|-----------------------------------------|
|--------------------------------------------|-----------------------------------------|
|--------------------------------------------|-----------------------------------------|
             It gets  so  real    some    -    times.         Who wrote      my____

|-----5---5---5--------3---3------3/----|-------5---5---5--------3---3----3-/-5---|
|-----5---5---5--------3----------------|-------5---5---5--------X---X------------|
|---------------------------------------|-----------------------------------------|
|---------------------------------------|-----------------------------------------|
|---------------------------------------|-----------------------------------------|
|---------------------------------------|-----------------------------------------|
  rhyme?    I've got  the  mic - ro - wave_____    got  the   V.  -  C.  -  R.

|-----5----5----X---------3----3----3---|------5----5---5----------X----3/-------|
|-----5----X----X---------3----X--------|------5----5---5----------X----3/-------|
|---------------------------------------|----------------------------------------|
|---------------------------------------|----------------------------------------|
|---------------------------------------|----------------------------------------|
|---------------------------------------|----------------------------------------|
               I  got  the  deuce,       deuce     in  the  trunk  of   my   car.


|----5--X-----5--X------3---3-----|----5--5----5--5--5----5---X--5----5--5---5--|
|----5--------5---------3---3-----|----5--5----5--------------5----------X------|
|---------------------------------|---------------------------------------------|
|---------------------------------|---------------------------------------------|
|---------------------------------|---------------------------------------------|
|---------------------------------|---------------------------------------------|
               Oh,  yeah______  If  you      on - ly   knew         all  the   love 

|----5--------5--5------5--5--5----5--5-----5----|------5--5-----5--5--------5---5---5--|
|-------X--X---------X--5-----5----------5-----5-|------------5--------------5---5---5--|
|------------------------------------------------|--------------------------------------|
|------------------------------------------------|--------------------------------------|
|------------------------------------------------|--------------------------------------|
|------------------------------------------------|--------------------------------------|
       that    I    found_______           It's      hard         to      keep   my 


|---------------------------------------|-----------------------------------------------|
|------------------=--------------------|-------------------=---------------------------|
|---------------------------------------|-----------------------------------------------|
|---------------------------------------|-----------------------------------------------|
|---------------------------------------|-----------------------------------------------|
|---------------------------------------|-----------------------------------------------|
  soul   on  the ground.    You're  a   fool,     don't f**k a - round__ with my  dog.
            
Hard to play? Try these video lessons and learn fast. | Correct




comments powered by Disqus
↑ Back to top | Tablatures and chords are parodies/interpretations of the original songs. You may use it for private study, scholarship, research or language learning purposes only