» » »

Sublime, Falling Idols Bass tabs (ver.1)

Artists:  A B C D E F G H I J K L M N O P Q R S T U V W X Y Z # 

Falling Idols Bass tabs (ver.1)

Sublime Tabs
Rating:
0/5 (0 votes)
Falling Idols lessons Tabs too difficult? Try these video lessons and learn fast
                Tuning:EADG
Group:Sublime


Intro
G:---------------------------------------------------------------|
D:---------------------------------------------------------------|
A:---------------------------------------------------------------|
E:---8-8-7-7-7-5--5-5--5-5-5--5-5-3-3-3-0-0-0-0-0-0-0-0----------|


G:---------------------------------------------------------------|
D:---------------------------------------------------------------|
A:---------------------------------------------------------------|
E:---8-8-7-7-7-5--5-5--5-5-5--5-5-3-3-3-0~~----------------------|


G:---------------------------------------------~~----------------|
D:------------------------------9/10-10--------~~----------------|
A:----------7-----8----8-7----8---------7~~~/19~~----------------|
E:---(0~)1-----------8-------------------------~~----------------|



Int.1
G:---------------------------------------------------------------|
D:---9999999-----------------------------------------------------|
A:---------------------------------------------------------------|
E:---------------------------------------------------------------|


Riff1
G:---------------------------------------------------------------|
D:---------------------------------------------------------------|
A:---------------------------------------------------------------|
E:---00-3/5\3-2222-33/7-00-3/5\3-2222-33\2-----------------------| x3


Int.2
G:---------------------------------------------------------------|
D:---------------------------------------------------------------|
A:---7-7-7777-9-9-9999-------------------------------------------|
E:---------------------------------------------------------------|


Riff2
G:---------------------------------------------------------------|
D:---------------------------------------------------------------|
A:---------------------------------------------------------------|
E:---8-8-7-7-7-5--5-5--5-5-5--5-5-3-3-3-0-0-0-0-0-0-0-0----------|

G:---------------------------------------------------------------|
D:---------------------------------------------------------------|
A:----------------------------12-12-10-10-10-7-7-7-7-7-7-7-7-----|
E:---8-8-7-7-7-5--5-5--5-5-5-------------------------------------|


Riff1 x3


Riff3
G:---------------------------------------------------------------|
D:---------------------------------------------------------------|
A:---------------------------------------------------------------|
E:---00-3/5\3-2222-33/2-00-3/5\3-2222-33\2-----------------------|


Int.3
G:---------------------------------------------------------------|
D:---------------------------------------------------------------|
A:---------------------------------------------------------------|
E:---0000000011111111--------------------------------------------| x3


Riff2


Riff1 x3


Riff3 


Int.4
G:---------------------------------------------------------------|
D:---------------------------------------------------------------|
A:---------------------------------------------------------------|
E:---000000001111111100000000222222220000000033333333------------| 


Riff2


Riff1


Riff3


Int.5
G:---------------------------------------------------------------|
D:---------------------------------------------------------------|
A:---7-777777--9-999999--7-777777--9-----------------------------|
E:-----------------------------------777777----------------------|

G:---------------------------------------------------------------|
D:---------------------------------------------------------------|
A:---7-777777--9-999999--7-777777--9-999999--7-777777--9-999999--|
E:---------------------------------------------------------------|


Riff2


Ending
G:---------------------------------------------------------------|
D:-----2222---------222--------22--------------------------------|
A:---------------------------------------------------------------|
E:---0-----1111110-0---11111100--00111111000000001-1-1-1---------|

G:---9~~~~-------------------9-----------------------------------|
D:---9~~~~-------------------9-----------------------------------|
A:---7~~~~-------------------7-----------------------------------|
E:---------------------------------------------------------------|



Sublime Forever :)
            
Submit corrections

comments powered by Disqus
↑ Back to top | Sublime Bass for Falling Idols. Lyrics for acoustic guitar and electric guitar. Tablatures and chords are parodies/interpretations of the original songs. You may use it for private study, scholarship, research or language learning purposes only