» » »

Eighty Nine Vision Bass tabs (ver.1)

Artists:  A B C D E F G H I J K L M N O P Q R S T U V W X Y Z # 

Eighty Nine Vision Bass tabs (ver.1)

Sublime
Rating:
0/5 (0 votes)

Hard to play? Try these video lessons and learn fast.
                Intro (x2)

G|--------------------------------------7-7-7-9----|
D|------------------------4-4-4--7-7-7-------------|
A|--------------5-5-5-4----------------------------|
E|2-2-2--5-5-5-------------------------------------|

Verse (x8)
G|-------------------------------------------------|
D|-------4-2---------------------------------------|
A|---4-5-------------------------------------------|
D|-5--------{0-0-0-0-4}----------------------------|
 			

Verse (x8 {2nd time until end})
G|-------------------------------------------------|
D|-------------------------------------------------|
A|---2h4-4-0--4-2----------------------------------|
D|-2--------------5-4------------------------------|



end
G|-------------------------------------------------|
D|-------7-7-7-7-----------------------------------|
A|--------------------------------4----------------|
D|--5-5-----------4-4-4-4-4-4-4-4------------------|
            
Hard to play? Try these video lessons and learn fast. | Correct




comments powered by Disqus
↑ Back to top | Tablatures and chords are parodies/interpretations of the original songs. You may use it for private study, scholarship, research or language learning purposes only