» » »

Ebin Bass tabs (ver.4)

Artists:  A B C D E F G H I J K L M N O P Q R S T U V W X Y Z # 

Ebin Bass tabs (ver.4)

Sublime
Rating:
0/5 (0 votes)

Hard to play? Try these video lessons and learn fast.
                A very cool song, the bass isnt too hard, just a few fast bits that take some practice.
If you're still a beginner, just learning the verse is a good start.


verse (play slow for the intro)

--------------------7------9-------7---7--------------------7------9---------------|
----------------7-9---9------7h8h9---9------------------7-9---9--------6--7--8--9--|
-----------7-9----------7-7------------------------7-9----------7-7--7-------------|
--7--7-10---------------------------------7--7-10----------------------------------|

-------------------------------------------|
-------------------------------------------|
-----------7-----------------7-------------|
--7-----------------7----------------------|

verse x 2

-------------------------------------------|
-------------------------------------------|
-------------------------------------------|
---3-3-3-3-3-3-3-3--2--5-6-7---------------|

verse x 1

-------------------------------------------------------------------------|
-------------------------------------------------------------------------|
-------------------------------------------------------------------------|
--7-7-7-7------------10-10-10-10------------5-5-5-5-------------2-2-2-2--|

---------------------------------------------------------------------------------------------|
---------------------------------------------------------------------------------------------|
---------------------------555----555----555---555--7----------------------------------------|
--5777--5777--5777--5777--5------7------7-----7------555--7555--7555--7555--33-3-33-3-33-33--|

---------------------------------------------------------------------------------|
--------77-99----1212-1010--------------------55-77-------6---7-8-9--------------|
-----99--------------------1212-1010-------77----------77---7--------------------|   x2
--77------------------------------------55---------------------------------------|

verse x 3

-------------------------------------------|
-------------------------------------------|
-------------------------------------------|
---3-3-3-3-3-3-3-3--2--5-6-7---------------|

verse x 1

------------------------------------------------------------------------------|
------------------------------------------------------------------------------|
------------------------------------------------------------------------------|
--7-7-7-7-7-7-7-7--10-10-10-10-10-10-10-10--5-5-5-5-5-5-5-5--3-3-3-3-3-3-3-3--|

---------------------------------------------------------------------------------------------|
---------------------------------------------------------------------------------------------|
---------------------------555----555----555---555--7----------------------------------------|
--5777--5777--5777--5777--5------7------7-----7------555--7555--7555--7555--33-3-33-3-33-33--|

verse x 6 (during guitar solo) this is a good time to throw some variation into it

-------------------------------------------|
-------------------------------------------|
-----------7-----------------7-------------|
--7-----------------7----------------------|

-------------------------------------------|
-------------------------------------------|
-------------------------------------------|
---3-3-3-3-3-3-3-3--2--5-6-7---------------|

the end!
            
Hard to play? Try these video lessons and learn fast. | Correct




comments powered by Disqus
↑ Back to top | Tablatures and chords are parodies/interpretations of the original songs. You may use it for private study, scholarship, research or language learning purposes only