>
 >
Dont Push

Dont Push Bass Tabs

Sublime - Dont Push chords, tabs, tablatures, lyrics

Guitar lessons | Add/correct | Request | Top 50 tabs Artists:  A B C D E F G H I J K L M N O P Q R S T U V W X Y Z 0-9

Dont Push Bass Tabs – Sublime

CD, Sheet music, Poster

Do you like Dont Push? Share with your friends now
Bass TabsBass Tabs v2ChordsTabsUkulele
Intro                                      repeat twice
G|-----------------------|-----------------------|
D|-77-1010-77-10-7-7-----|-77-1010-77-109-7-7----|
A|-----------------------|-----------------------|
E|-------------------3h5-|--------------------3h5|

Verse       x3                          
G|---------|  |------------------------|--------------------------------------|
D|---------|  |----------4-5-7---4-5-7-|--------------------------------------|
A|--4-5-7--|  |--7-5-4--5-------5------|-4-5-7---4-5-6-7--7--66-5\------------|
E|-5-------|  |-5----------------------|5-------5--------7-7-------5-050-5-050|

G|------------------------| 
D|------------------------| 
A|5--5--66-5\-------------|
E|--5-5-------5-050-5-050-|

Verse       x3
G|---------|  |------------------------|
D|---------|  |----------4-5-7---4-5-7-|
A|--4-5-7--|  |--7-5-4--5-------5------|
E|-5-------|  |-5----------------------|

G|------------------------------------------| 
D|------------------------------------------|  
A|-4-5-7---4-5-6-7--7--66-5\-----444-888----| 
E|5-------5--------7-7-------555---------777|

Verse       x3                          
G|---------|  |------------------------|--------------------------------------|
D|---------|  |----------4-5-7---7-5-4-|--------------------------------------|
A|--4-5-7--|  |--4-5-7--5-------5-----5|-4-5-7---4-5-6-7--7--66-5\------------|
E|-5-------|  |-5----------------------|5-------5--------7-7-------5-050-5-050|

G|------------------------| 
D|------------------------| 
A|5--5--66-5\-------------|
E|--5-5-------5-050-5-050-|

Verse       x3                          
G|------------------------------------------|-------------------------------------| 
D|------------------------------------4-5-7-|-------------------------------------| 
A|--------4-5-6-5--5----4-5-7-5---5--5------|5--5--5--5--2/7--7--66-5-----444-888-|
E|5-050--5--------5-5--5---------5-5--------|--5-5---5-5-----7-7------555--------777|


Bridge
G|----------------|
D|----------------| 
A|----------------| 
E|-5--5--5--55---5|

Intro                                      repeat twice
G|-----------------------|-----------------------|
D|-77-1010-77-10-7-7-----|-77-1010-77-109-7-7----|
A|-----------------------|-----------------------|
E|-------------------3h5-|--------------------3h5|

Verse       x3                          
G|---------|  |------------------------------------------------------------|
D|---------|  |-------------------4-5-7------------------------------------|
A|--4-5-7--|  |--4-5-7--5---5----5-------------4-5-6-7--7--66-5------------|
E|-5-------|  |-5----------5-5----------5-050-5--------7-7------5-050-5-050|

G|------------------------| 
D|------------------------| 
A|5--5--66-5\-------------|
E|--5-5-------5-050-5-050-|

Ending Riff	     x4             x4                x4
G|------------------|--------------|------------------|
D|------------------|-----2-------0|------------------|  With slight variation
A|-3-3---3---1-1---1|-3-3---3--1-1-|-3-3---3---1-1---1|
E|-----3--------1---|--------------|-----3--------1---|

That Funky Bass Line
G|----------------|------------------|------------------|----------------|
D|-----2---------0|-------2---------0|-------2---------0|------2--------0|
A|-3-3---3---1-1--|-3-333---3---1-1--|-3-33----33--1-1--|-3333---3---1-1-|
E|----------------|------------------|------------------|----------------|

Outro
G|----------------|repeat this many times with slight variations.
D|----------------|then slide the last note up the freatboard          
A|-3333---3---1-1-|                     
E|------3--------1|                      





Comments


Popular Sublime tabs & chords
Ballad Of Johnny Butte Bass Tabs
Falling Idols Bass Tabs
Get Ready 1 Bass Tabs
Santeria 3 Chords
What I Got Reprise Chords
Hong Kong Phooey Tabs
Rivers Of Babylon 2 Tabs
Ballad Of Johnny Butt Ukulele
Dont Push Ukulele
Wrong Way Ukulele


Song lyrics



↑ Back to top | Tablatures and chords are parodies/interpretations of the original songs. You may use it for private study, scholarship, research or language learning purposes only
© 2014 AZChords.com Contact us | Privacy policy | DMCA | Add/correct tabs | Request tabs | Top 50 tabs