» » »

Doin Time Bass tabs (ver.4)

Artists:  A B C D E F G H I J K L M N O P Q R S T U V W X Y Z # 

Doin Time Bass tabs (ver.4)

Sublime
Rating:
0/5 (0 votes)

Hard to play? Try these video lessons and learn fast.
                -------------------------------------------------------------------------------
			     DOIN' TIME - Sublime
-------------------------------------------------------------------------------

Tuning: Standard

Really fun song to play. All the other versions of this are either wrong or harder 
than they need to be. Enjoy.

This is the main riff, played in through the entire song.
G|---------------------------------------------------------------------------|
D|----0---1-0----------------------------------------------------------------|
A|---1-1-3-3-----------------------------------------------------------------|
E|-3-------------------------------------------------------------------------|


You can also play it like this:
G|---------------------------------------------------------------------------|
D|---------------------------------------------------------------------------|
A|-------5-3-6-3-5-----------------------------------------------------------|
E|---3--6-6------------------------------------------------------------------|


Have fun with it.
            
Hard to play? Try these video lessons and learn fast. | Correct




comments powered by Disqus
↑ Back to top | Tablatures and chords are parodies/interpretations of the original songs. You may use it for private study, scholarship, research or language learning purposes only