» » »

Dog Dub Bass tabs (ver.1)

Artists:  A B C D E F G H I J K L M N O P Q R S T U V W X Y Z # 

Dog Dub Bass tabs (ver.1)

Sublime
Rating:
0/5 (0 votes)

Hard to play? Try these video lessons and learn fast.
                INTRO
G----------------------------|
D----0-----------------------|
A--5---5---77777770----------|
E--------5-------------------|

MAIN
G------------------------------|
D----5-7-7---7-5---------------|
A--5-------8-----8-7-(0)-5-----|
E------------------------------|

ERIC CHANGES IT UP ALOT THROUGH OUT THE SONG SO
HAVE FUN PLAY AROUND WITH THIS DOG DUB MIGHT BE
HARD TOO FIND BUT sh*t I FOUND IT SO
PEACE
            
Hard to play? Try these video lessons and learn fast. | Correct




comments powered by Disqus
↑ Back to top | Tablatures and chords are parodies/interpretations of the original songs. You may use it for private study, scholarship, research or language learning purposes only