>
 >
Date Rape 5

Date Rape 5 Bass Tabs

Sublime - Date Rape 5 chords, tabs, tablatures, lyrics

Guitar lessons | Add/correct | Request | Top 50 tabs Artists:  A B C D E F G H I J K L M N O P Q R S T U V W X Y Z 0-9

Date Rape 5 Bass Tabs – Sublime

CD, Sheet music, Poster

Do you like Date Rape 5? Share with your friends now
Bass TabsBass Tabs v2Bass Tabs v3Bass Tabs v4Bass Tabs v5ChordsTabsTabs v2Tabs v3Tabs v4Ukulele

There are still some variations missing, but this is basically it.


Intro

G|---------------------------------------------------------- |
D|--------------------------------------------------7-8-7--- |
A|----------------7-5--------------------------7-10-------10 |
E|-0-0-0-1-1-1-0------7-6-5-3---0-0-0-1-1-1-0--------------- |

G|----------------------------------------------------------|
D|----------------------------------------------------------|
A|-0-0-0-1-1-1-0--------------------------------------------|
E|------------------------------0-0-0-1-1-1-0---------------|

G|---------------------------------------|
D|---------------------------------------|
A|-10-10----10----10-----9-9----8-8----7-|
E|-------10----10-----10-----9------8----|


Verse 1

G|--------------------------------------------------------- |    ^
D|---5/9-9--------5/9-9--------5/9-9--------5/9-9-----   -- |
A|-7-------10---7-------10---7-------10---7-------10--   -- |
E|----------------------------------------------------   -- |
							|---Repeat twice
G|----------------------------------------------------   -- |
D|----------------------------------------------------   -- |
A|---3/7-7------3/7-7------6/9-9----------------------   -- |
E|-5-------8--5-------8--7-------7--8--8--7--7------------- |    v

G|----------------------------------------------------|
D|---5/9-9--------5/9-9--------5/9-9--------5/9-9-----|
A|-7-------10---7-------10---7-------10---7-------10--|
E|----------------------------------------------------|

G|----------------------------------------------------|
D|----------------------------------------------------|
A|---6/9-9-6----6/9-9-6----3/7-7------3/7-7-----------|
E|-7----------7----------5-------8--5-------8---------|

G|----------------------------------------------------|
D|---5/9-9--------5/9-9--------5/9-9--------5/9-9-----|
A|-7-------10---7-------10---7-------10---7-------10--|
E|----------------------------------------------------|

G|-----------------------------------------------------------------|
D|-----------------------------------------------------------------|
A|-------------------------------------------------7-7-7-7-7-7-7-7-|
E|-7-7-7-7-7-7-7-7-7-7-7-7-7-7-7-7-8-8-8-8-7-7-7-7-----------------|

G|-------------------------------------------------|
D|-------------------------------------------------|
A|-------------------------------------------------|
E|-8-8-8-8-7-7-7-7-0-0-0-0-0-0-5h7-0-0-0-0-0-0-0-0-|


Pre-chorus + chorus

G|-------------------------------------------------|
D|-------------------------------------------------|
A|-7----7----7----7----7----7----7----7------------|
E|----7----7----7---7-----7----7----7----7---------|

G|---------------------------------------------------------|
D|---------------------------------------------------------|
A|---------------------------------10-10-10-10-10-10-10-10-|
E|-7-7-7-7-7-7-7-7-8-8-8-8-8-8-8-8-------------------------|

G|-----------------------------------------------------------------|
D|-----------------------------------------------------------------|
A|-----------------------------------------7--7--7--7--7--7--7--7--|
E|-10-10-10-10-10-10-10-10-7-7-7-7-7-------------------------------|

G|-----------------------------------------------------------------|
D|-----------------------------------------------------------------|
A|-7-7-------------7-7-------------7-7-------------7-7-------------|
E|-----7-7-8-8-5-5-----7-7-8-8-5-5-----7-7-8-8-5-5-----7-7-8-8-5-5-|

G|-----------------------------------------------------------------|
D|-----------------------------------------------------------------|
A|-----------------------------------------------------------------|
E|-7-7-7-7-7-7-7-7-7-7-7-7-7-7-8---7-7-7-7-7-7-7-7-7-7/19-20-19----|

G|-----------------------------------------------------------------|
D|-----------------------------------------------------------------|
A|-----------------------------------------------------------------|
E|-19-19-19-19-19-19-19-19-19-19-19-19-19-19-20-19-----------------|


Solo


G|----------------------------------------------------|
D|---5/9-9--------5/9-9--------5/9-9--------5/9-9-----|
A|-7-------10---7-------10---7-------10---7-------10--|
E|----------------------------------------------------|

G|----------------------------------------------------|
D|---5/9-9--------5/9-9--------5/9-9--------5/9-9-----|
A|-7-------10---7-------10---7-------10---7-------10--|
E|----------------------------------------------------|

G|----------------------------------------------------|
D|----------------------------------------------------|
A|---6/9-9-6----6/9-9-6----3/7-7------3/7-7-----------|
E|-7----------7----------5-------8--5-------8---------|


Intro


Verse 2

G|----------------------------------------------------|
D|---5/9-9--------5/9-9--------5/9-9--------5/9-9-----|
A|-7-------10---7-------10---7-------10---7-------10--|
E|----------------------------------------------------|

G|----------------------------------------------------|
D|----------------------------------------------------|
A|---3/7-7------3/7-7------6/9-9----------------------|
E|-5-------8--5-------8--7-------7--8--8--7-5-0-------|

G|----------------------------------------------------|
D|----------------------------------------------------|
A|-7---7---7-7-7-7------------------------------------|
E|-----------------5-5-5-5-5-5-5-5-7--7--8--7---------|

G|----------------------------------------------------|
D|---5/9-9--------5/9-9--------5/9-9--------5/9-9-----|
A|-7-------10---7-------10---7-------10---7-------10--|
E|----------------------------------------------------|

G|----------------------------------------------------|
D|----------------------------------------------------|
A|---6/9-9-6----6/9-9-6----3/7-7------3/7-7-----------|
E|-7----------7----------5-------8--5-------8---------|


G|----------------------------------------------------|
D|---5/9-9--------5/9-9--------5/9-9--------5/9-9-----|
A|-7-------10---7-------10---7-------10---7-------10--|
E|----------------------------------------------------|

G|-----------------------------------------------------------------|
D|-----------------------------------------------------------------|
A|-------------------------------------------------7-7-7-7-7-7-7-7-|
E|-7-7-7-7-7-7-7-7-7-7-7-7-7-7-7-7-8-8-8-8-7-7-7-7-----------------|

G|-------------------------------------------------|
D|-------------------------------------------------|
A|-------------------------------------------------|
E|-8-8-8-8-7-7-7-7-0-0-0-0-0-0-5h7-0-0-0-0-0-0-0-0-|


Pre-chorus + chorus


Outro

G|-----------------------------------------------------------------|
D|-----------------------------------------------------------------|
A|-7-7-------------7-7-------------7-7-------------7-7-------------|
E|-----7-7-8-8-5-5-----7-7-8-8-5-5-----7-7-8-8-5-5-----7-7-8-8-5-5-|

G|-----------------------------------------------------------------|
D|-----------------------------------------------------------------|
A|-----------------------------------------------------------------|
E|-7-7-7-7-7-7-7-7-7-7-7-7-7-7-8---7-7-7-7-7-7-7-7-7-7-7-7-7-7-8---|

G|-----------------------------------------------------------------|
D|-----------------------------------------------------------------|
A|-----------------------------------------------------------------|
E|-7-7-7-7-7-7-7-7-7-7-7-7-7-7-8---7-------------------------------|

G|--------------------------------------------------------------------------|
D|-------9---------9------------------------------------------12--10---9----|
A|-7--10-----7--10-------6--9------------7--10-----7--10---10------------10-|
E|---------------------7--------7-7----8---------8--------------------------|

G|-------------------------------------------------------------------|
D|-------9---------9------------------------------------9--12--9-----|
A|-7--10-----7--10-------6--9-----------7--10--------10-----------10-|
E|---------------------7--------7-7---8---------8-8------------------|

G|--------------------------------------------------|
D|--------------------------------------------------|
A|-7-7-7-7-7-7-7-7-----------------------------7/8--|
E|-----------------7-7-7-7-7-7-7-7-8-8-8-8-8-8------|

G|----------------------------------------------------------|
D|-----------------------------------7/9-9-9-9-9-9-9-9-9-9--|
A|-10-10-10-10-10-10-10-10-7-7-7-7-7------------------------|
E|----------------------------------------------------------|

G|-------------------------------------------------|
D|-10-10-10-10-10-10-10-10--------9----------------|
A|--------------------------10-10---10-10-10-10-10-|
E|-------------------------------------------------|

G|---------------------------------------------------------|
D|---------------------------------------------------------|
A|-7------5---------7------5--------7------5---------7-7---|
E|----7-------5--------7-------5-------7-------5-----------|





Comments


Popular Sublime tabs & chords
Santeria 5 Bass Tabs
We're Only Gonna Die Bass Tabs
Rivers Of Babylon 2 Chords
Smoke Two Joints Chords
Date Rape 4 Tabs
Legal Dub Tabs
Rivers Of Babylon 2 Tabs
Santeria Unplugged Tabs
I Saw Red Ukulele
Lovers Rock Ukulele


Song lyrics



↑ Back to top | Tablatures and chords are parodies/interpretations of the original songs. You may use it for private study, scholarship, research or language learning purposes only
© 2014 AZChords.com Contact us | Privacy policy | DMCA | Add/correct tabs | Request tabs | Top 50 tabs