» » »

Sublime, Crazy Fool Tabs (ver.1)

Artists:  A B C D E F G H I J K L M N O P Q R S T U V W X Y Z # 

Crazy Fool Tabs (ver.1)

Sublime Tabs
Rating:
0/5 (0 votes)
Crazy Fool lessons Tabs too difficult? Try these video lessons and learn fast
                Live version of Crazy Fool by Sublime

Intro:
e----------------------------2--------------------------2-|
b----------------------------2--------------------------2-|
g---------------------------------------------------------|
d---------------------------------------------------------|
a------0--2--0----------------------0--2--0--------2------|
e--2-------------2--0--2--------2------------2--0---------|

e---------------------------11-------------------------5-|
b---------------------------12-------------------------5-|
g------------------------------------------------------6-|
d------------------------------------------------------7-|
a -----0--2--0----------------------0--2--0------------7-|
e --2-------------2--0--2--------2-------------2-0-2---5-|

Crazy crazy....
e--5-------------------4--x--2---5----|
b--5-------------------5--x--3---5----|
g--6-------------------6--x--4---6----|
d--7-------------------6--x--4---7----|
a--7------------3-4---4--x--2---7-----|
e--5---0-5-7-------------x-------5----|

Foolish foolish....
e--5----------------------4--x--2--5----|
b--5----------------------5--x--3--5----|
g--6----------------------6--x--4--6----|
d--7----------------------6--x--4--7----|
a--7---------------3-4---4--x---2--7----|
e--5------0-5-7-------------x------5----|

A				 E
If she thinks she is gonna take you from me
	     D		           C#m
Gotta be a crazy crazy crazy, crazy fool
C#m     Bm           A
  Crazyyy              fool

Riff after F#:
e-----------------------------2--|
b-----------------------------2--|
g--------------------------------|
d--------------------------------|
a------0--2--0-------------------|
e--2-------------2--0--2---------|

F#				*Riff*
My love for you is so strong
F#					*Riff*
We were together for oh so long
F#				*Riff*
Am I to live in this misery
F#  F  E
	Is this way loves supposed to be, supposed to be ahhh

F#    F    E
--9----8---7--|
--9----8---7--|
-11---10---9--|
-11---10---9--|
--9----8---7--|
--9----8---7--|
            

comments powered by Disqus
↑ Back to top | Sublime Tabs for Crazy Fool. Lyrics for acoustic guitar and electric guitar. Tablatures and chords are parodies/interpretations of the original songs. You may use it for private study, scholarship, research or language learning purposes only