» » »

Chica Me Tipo Tabs (ver.2)

Artists:  A B C D E F G H I J K L M N O P Q R S T U V W X Y Z # 

Chica Me Tipo Tabs (ver.2)

Sublime
Rating:
3/5 (1 vote)

Hard to play? Try these video lessons and learn fast.
                Guitar 1
E|--7-7---7-7----8--8--8--7-7--7-7-------|
B|--8-8---8-8----8--8--8--7-7--7-7-------|
G|--9-----9-9-------9-----7-7--7-7-------|(repeat)
D|--9---------------------9----9---------|
A|---------------------------------------|
E|---------------------------------------|

Bass
G|--------------------------------------|
D|-----------2--------------------------|
A|---------2----3--3--3-2--0------------|
E|--0---3---------------------3---2-----|


Guitar 2 does the chord progression.


Em       C             Bm Em
No me importa que se lleva,

Em       C       Bm
Porque todo se quitara,
C      Bm       A
ah no puedo ver lo (N.C.)

Ni en pintura

Chorus 1:

Guitar 1
E|-----------------------------------------------------|
B|----5-----5-----4-----4------------------------------|
G|------6-----6-----5-----5---------6----6----2------2-|(repeat)
D|--------7-----7-----6-----6-----6----6----2------2---|
A|------------------------------4----4----0------0-----|
E|-----------------------------------------------------|


Bass
E|----------------------------------------------|
B|----------------------------------------------|
G|----------------------------------------------|(repeat)
D|----2---2--------------6----6-----------------|
A|--0---0------6---6--4----4-------2----2-------|
E|----------4----4---------------0----0---------|

A                 G#m
Cuando empezemos, No me dio cuento,

C#m           E
De que luego, Tuviera que

       C     G
pagar, Pero, si se cambie

D        F         C        D
Me muero acostarme con ti...Con ti

Verse 2:

Em     C       Bm Em
No me propongo predicar,

C      Bm    Em
Vive y dejar vivir,

      C       Bm (N.C.)
Pero el amigo tiene un condom en el bolsio

Chorus 2:

A                 G#m
Yo no soy medico, No soy chapusero,

C#m                  E
Solamente estoy pobre, Y ya estoy tan solo

C                  G
Pero si se cambia, Ella seria mia,

D        F          C          D
Para ser poseido en propeidad, En propeidad


Solo

Outro:

C                      G
I've got to get around for you

   A
Whoa what can i do?

F          C                       D
Out later? I would lay down anytime with her...with her
            
Hard to play? Try these video lessons and learn fast. | Correct




comments powered by Disqus
↑ Back to top | Tablatures and chords are parodies/interpretations of the original songs. You may use it for private study, scholarship, research or language learning purposes only