» » »

Big Salty Tears Tabs (ver.1)

Artists:  A B C D E F G H I J K L M N O P Q R S T U V W X Y Z # 

Big Salty Tears Tabs (ver.1)

Sublime
Rating:
0/5 (0 votes)

Hard to play? Try these video lessons and learn fast.
                -----------------------------------------2--2--2--2--2--3--3-3--3--3-3----6---
------------------7--7--7--7------7--7---2--2--2--2--2--3--3-3--3--3-3----6---
------------------7-----7---7-----7--7---3--3--3--3--3--4--4-4--4--4-4----7---
------------------7--7--7-----7---7--7---4--4--4--4--4--5--5-5--5--5-5----8---
---0---2---4---5--5--5--5-------5-5--5---4--4--4--4--4--5--5-5--5--5-5----8---
-----------------------------------------2--2--2--2--2--3--3-3--3--3-3--6-----
 verse                                                                        

---6--6\5--5--5--5--|--------------------------------------3--3--3--3--3-|----
---6--6\5--5--5--5--|--7--7--7--7--7--7--5--5--5--5--5--5--3--3--3--3--3-|----
---7--7\6--6--6--6--|--7--7--7--7--7--7--5--5--5--5--5--5--4--4--4--4--4-|----
---8--8\7--7--7--7--|--7--7--7--7--7--7--5--5--5--5--5--5--5--5--5--5--5-|----
---8--8\7--7--7--7--|--5--5--5--5--5--5--3--3--3--3--3--3--5--5--5--5--5-|----
-6----6\5--5--5--5--|--------------------------------------3--3--3--3--3-|----
                     "I'm at the age where..."                repeat...then   

---5---5---5---5---5----------------|-----------------------------------------
---5---5---5---5---5----------------|-----------------------------------------
---6---6---6---6---6----------------|-----------------------------------------
---7---7---7---7---7----------------|-----------------------------------------
---7---7---7---7---7--0---2---4--5--|-----------------------------------------
---5---5---5---5---5----------------|-----------------------------------------
 fat fat fat fat fat
            
Hard to play? Try these video lessons and learn fast. | Correct




comments powered by Disqus
↑ Back to top | Tablatures and chords are parodies/interpretations of the original songs. You may use it for private study, scholarship, research or language learning purposes only