» » »

April Twenty-Ninth Nineteen Ninety-Two Bass tabs (ver.1)

Artists:  A B C D E F G H I J K L M N O P Q R S T U V W X Y Z # 

April Twenty-Ninth Nineteen Ninety-Two Bass tabs (ver.1)

Sublime
Rating:
0/5 (0 votes)

Hard to play? Try these video lessons and learn fast.
                Sublime
April 29, 1992

for some reason, the other two versions of this song gave me an error message
when i attempted to open them.  I attribute this in some way to the file name,
that is why i listed this one different.  anyway, i hope you enjoy.

INTRO (repeated at various times in the song)
G|-------------------------------------------|
D|-------------------------------------------|
A|-5-5-0-5-3-3-----3-5-5-0-5---------3-3-3-3-|
E|-------------3h5-----------1-1-1-1---------|

VERSE
G|-----------------|-----------------|
D|-----------------|-------------5---|
A|-5-5-5-5-5-5-0-5-|-5-5-5-5-5-5-----|
E|-----------------|-----------------|

G|-----------------|-----------------|
D|-------------5---|-----------------|
A|-----------------|-----------------|
E|-5-5-5-5-5-5-----|-5-5-5-5-5-5-----|

BRIDGE
G|-----------------------------------------|
D|-----3-5---------3-5-----3-5---------3-5-|
A|-5-5-----5-5-5-5-----5-5-----5-5-5-5-----|
E|-----------------------------------------|

G|----------|
D|----------|
A|----------|
E|-5*-3*-5*-| *=long sustained notes

this song has a lot of bottom end, so some parts,
especially the verse, can be hard to hear.  listen closely.
            
Hard to play? Try these video lessons and learn fast. | Correct




comments powered by Disqus
↑ Back to top | Tablatures and chords are parodies/interpretations of the original songs. You may use it for private study, scholarship, research or language learning purposes only