» » »

Aprill 29 1992 Bass tabs (ver.1)

Artists:  A B C D E F G H I J K L M N O P Q R S T U V W X Y Z # 

Aprill 29 1992 Bass tabs (ver.1)

Sublime
Rating:
0/5 (0 votes)

Tabs too difficult? Try these video lessons and learn fast.
                Intro
[----------------------------------------------------------------------------
[----------------------------------------------------------------------------
[---------5-5-0-5-------3-3-0-3--------5-5-0-5------------------3-3-3-3
[-------------------------------------------------------1-1-1-1------------

main line

[--------------------------------------------------------------------------
[--------------------------------------5-----------------5----------------
[-------------5-5-5-5-0----5-5-5-5-------------------------------------
[---------------------------------------------5-5-5-5-----------5-5-5-5-

piano/ dj part

[-------------------------------------------------------------------------
[-------------------------------------------------------------------------
[------3---5--------3---5-------3---5---------------------------------
[-----------------------------------------------------------------------
then back to main line.
BE SERIOUS ABOUT WRITING TABS
            
Tabs too difficult? Try these video lessons and learn fast.


comments powered by Disqus
↑ Back to top | Tablatures and chords are parodies/interpretations of the original songs. You may use it for private study, scholarship, research or language learning purposes only