» » »

Sublime, April 2 1 Tabs (ver.8)

Artists:  A B C D E F G H I J K L M N O P Q R S T U V W X Y Z # 

April 2 1 Tabs (ver.8)

Sublime Tabs
Rating:
0/5 (0 votes)
Hard to play? Try these video lessons and learn fast.
                "(3)
April 29, 1992 (miami) - Sublime
100% correct

e|-------------------------------------------|
B|-------------------------------------------|
G|-------------------------------------------|
D|-------------------------------------------|  x2 (palm mute, clean)
A|-5-5---5-3-----3-5-5------------3-3-3-3----| 
E|-----5-----3-5-------5--1-1-1-1------------|

Verse
Apirl 29, 1992...
e|-x-x-x-x-x-x-x-x---------------------------|
B|-x-x-x-x-x-x-x-x---------------------------|
G|-7-7-7-7-7-7-7-7---------------------------| upstrokes (short and clean)
D|-7-7-7-7-7-7-7-7---------------------------|
A|-5-5-5-5-5-5-5-5---------------------------|
E|-x-x-x-x-x-x-x-x---------------------------|

You were sitting home watching your tv...
e|-x-x-x-x-x-x-x-x---------------------------|
B|-x-x-x-x-x-x-x-x---------------------------|
G|-6-6-6-6-6-6-6-6---------------------------|
D|-7-7-7-7-7-7-7-7---------------------------| upstrokes (short and clean)
A|-7-7-7-7-7-7-7-7---------------------------|
E|-5-5-5-5-5-5-5-5---------------------------|

First spot we hit it was my liquor store...
e|-x-x-x-x-x-x-x-x---------------------------|
B|-x-x-x-x-x-x-x-x---------------------------|
G|-7-7-7-7-7-7-7-7---------------------------| upstrokes (short and clean)
D|-7-7-7-7-7-7-7-7---------------------------|
A|-5-5-5-5-5-5-5-5---------------------------|
E|-x-x-x-x-x-x-x-x---------------------------|


Red Lights flashin, time to retire...
e|-x-x-x-x-x-x-x-x---------------------------|
B|-x-x-x-x-x-x-x-x---------------------------|
G|-6-6-6-6-6-6-6-6---------------------------|
D|-7-7-7-7-7-7-7-7---------------------------| upstrokes (short and clean)
A|-7-7-7-7-7-7-7-7---------------------------|
E|-5-5-5-5-5-5-5-5---------------------------|

Next stop we hit, it was the music shop...
e|-x-x-x-x-x-x-x-x---------------------------|
B|-x-x-x-x-x-x-x-x---------------------------|
G|-7-7-7-7-7-7-7-7---------------------------| upstrokes (short and clean)
D|-7-7-7-7-7-7-7-7---------------------------|
A|-5-5-5-5-5-5-5-5---------------------------|
E|-x-x-x-x-x-x-x-x---------------------------|

Finally we got our own PA...
e|-x-x-x-x-x-x-x-x---------------------------|
B|-x-x-x-x-x-x-x-x---------------------------|
G|-6-6-6-6-6-6-6-6---------------------------|
D|-7-7-7-7-7-7-7-7---------------------------| upstrokes (short and clean)
A|-7-7-7-7-7-7-7-7---------------------------|
E|-5-5-5-5-5-5-5-5---------------------------|

e|----------------------|
B|----------------------|
G|----------------------|
D|-----3-5---------3-5--| x4 (palm mute. distorted)
A|-5-5-----5-5-5-5------|
E|----------------------|

Repeat Verse

e|-------------------------|
B|-------------------------|
G|-------------------------|
D|--------3-5---------3-5--| x2 (palm mute. distorted)
A|-5----5-----5-5-5-5------|
E|-------------------------|

Solo (Repeat x2, Distortion)

e|----------------------------------------------------------------------------------|
B|----------------------------------------------------------------------------------|
G|----------------------------------------------------------------------------------|
D|----------------------------------------------------------------------------------|    
A|-5---5-4-3-3-----3-5-5---5---------3-3-3-3-5---5-3-3-----3-5-5---5---------3-3-3-3|
E|---5---------3-5-------5---1-1-1-1-----------5-------3-5-------5---1-1-1-1--------|

Verse Repeat
(let it burn)

Outro

e|-------------------------|
B|-------------------------|
G|-------------------------|
D|--------3-5---------3-5--| repeat x4
A|-5----5-----5-5-5-5------|
E|-------------------------|

last note

e|----------|
B|----------|
G|----------|
D|----------| 
A|----5\----|
E|----------|

have fun.
"            

comments powered by Disqus
↑ Back to top | Sublime Tabs for April 2 1. Lyrics for acoustic guitar and electric guitar. Tablatures and chords are parodies/interpretations of the original songs. You may use it for private study, scholarship, research or language learning purposes only