>
 >
54-46 That's My Number/Ball And Chain

54-46 That's My Number/Ball And Chain Bass Tabs

Sublime - 54-46 That's My Number/Ball And Chain chords, tabs, tablatures, lyrics

Guitar lessons | Add/correct | Request | Top 50 tabs Artists:  A B C D E F G H I J K L M N O P Q R S T U V W X Y Z 0-9

54-46 That's My Number/Ball And Chain Bass Tabs – Sublime

CD, Sheet music, Poster

Do you like 54-46 That's My Number/Ball And Chain? Share with your friends now
Bass Tabs
Okay I have seen a lot of versions of this tab but none of them are ever 
complete, so I decided to take the liberty of tabbing out this very 
respectable sublime song

                          "54-46 That's My Number"
Intro:
G:-----------------------------------|
D:-----------------5-7---------------|
A:-------3-4-55555-----------3-4-5-3-|
E:-55555---------------55555---------|


G:-----------------------------------|
D:-777-------------------------------|
A:-----9-7-55555-7-9-------3-4-5-3---|
E:---------------------55555---------|


Verse:                  Piano Verse:
G:---------------------|---------------------|
D:-777-----------------|-7-7-7---------------|
A:----9-7-555-5--7/9---|-------9-7-5-5-5-7-9-|
E:--------------7------|---------------------|
           x2                     x2


Piano Verse Variation
G:------------------------------------------|
D:-----------------5-7--7-7-7---------------|
A:-------3-4-5-5-5------------9-7-5-5-5-7-9-|
E:-5-5-5------------------------------------|


Chorus             "Give it to me one time..."
G:---------------|---------------------------------|
D:-777-----------|---------------------------------|
A:-----9-7-5-5-5-|-5-----5-5-----5-5-5-----5-5-5-5-|
E:---------------|---------------------------------|


Bridge: do this over after every third time you do 
        the second part
G:---------------------|-------------------|
D:-----------------5-7-|-777---------------|
A:-------3-4-55555-----|-----9-7-55555-7-9-|
E:-55555---------------|-------------------|
           1x                    3x

Outro: (just this part of the song)

   "give it to me one time...."
G:-----------------------------------|
D:-----------------------------------|
A:-5-----5-5------5-5-5------5-5-5-5-|
E:-----------------------------------|


                               "Ball and Chain”

Intro:
G:-------------------------|
D:-----5~----------5~------|
A:-7-7-----7-7-5-7-----5-7-|
E:-------------------7-----|
             x2

Verse: (Part 1) "boy meets girl" and "la da da da da da da da"
    I'm not absolutely sure on this part but it does sound right when 
    I play along with it.
G:---------------------|-------------------|-------------------------------|
D:-----5-7-------------|-----7-9-----------|-------------------------------|
A:-7-7-----777-5-5/7---|-7-7---------------|-5-5---5-5555--5---------------|
E:-------------------5-|---------7-7-77777-|-----7-------7---7-7-7-7-7-7-7-|


Verse: (Part 2) "conflicting points of view"
G:-------------------------------------------------------|
D:-------------------------------------------------------|
A:-7-7777--------7-7777--------7-7777--------------------|
E:--------5-5555--------5-5555--------5-5555-77777-77777-|

Verse: (Part 3) "ball and chain I call my home"
G:-------------------------|----------------------------------|
D:-------------------------|----------------------99999-99999-|
A:-77777-------------------|-77777/10-10-10-10-10-------------|
E:-------55555-77777-77777-|----------------------------------|

Chorus/Outro:  "ba-na-na-na-na-na-na!"
G:------------------------|
D:-----5~---------5~------|
A:-7-7----7-7-5-7-----5-7-| x2
E:------------------7-----|

     That's about it.  I felt like putting a complete tab out for this song 
it's a great song to play as a whole, not just as a half.  Eric, of course,
uses a lot of variation, so you can put fillers wherever you think they sound
good.  I thought I did pretty good, and I hope you guys (and gals) think my





Comments


Popular Sublime tabs & chords
All You Need Bass Tabs
Dont Push 2 Bass Tabs
Santeria 4 Bass Tabs
Sweet Little Rosie Bass Tabs
Wrong Way Bass Tabs
Guava Jellythis Train Chords
April 26, 1992 Tabs
Greatest Hits Tabs
Seed 1 Tabs
Thanx 1 Tabs


Song lyrics



↑ Back to top | Tablatures and chords are parodies/interpretations of the original songs. You may use it for private study, scholarship, research or language learning purposes only
© 2014 AZChords.com Contact us | Privacy policy | DMCA | Add/correct tabs | Request tabs | Top 50 tabs