» » »

Sublime, 5446 Bass tabs (ver.1)

Artists:  A B C D E F G H I J K L M N O P Q R S T U V W X Y Z # 

5446 Bass tabs (ver.1)

Sublime Tabs
Rating:
3/5 (7 votes)
5446 lessons Tabs too difficult? Try these video lessons and learn fast
                -------------------------------------------------------------------------------
			     SONG NAME - Band Name
-----------------------------54/46--------sublime------------------------------------------


Tuning:normal

INTRO
G|--------------------------------------------------------------------------|
D|----------------5h7-------------------77777-------------------------------|
A|------3-4-5-5-5-----------3-4-5-3”-R--------9-7-5-5-5-7h9-------3-4-5--3--|
E|5-5-5---------------5-5-5---------------------------------5-5-5-----------|

MAIN RIFF
G|-----------------------------------------------------------------------------------|
D|----------------5h7-----------------5h7-77777---------------7-7-7------------------|
A|------3-4-5-5-5-----------3-4-5-5-5-----------9-7-5-5-5-7h9-------7-9--------------|
E|5-5-5---------------5-5-5---------------------------------------------5-5-5-7h9----|

GIVE IT TO ME
G|-------------------------------|
D|-------------------------------|
A|--5--5-5--5-5-5--5-5-5-5-------|
E|-------------------------------|

WHEN BRAD BREAKS IT DOWN
G|----------------|------------------------|
D|----------------|7h9-7-7-7---------------|X3
A|------3-4-5-5-5-|----------9-7-5-5-5-7h9-|
E|5-5-5-----------|------------------------|

Intro ball and chain
G|-----------------------------------|
D|----5~----5~-7-5---5~-----5~-------|X2
A|7-7----5-7-------7----5-7----------|
E|-----------------------------------|
Main riff
G|------------------------------------------------------------------|
D|-----6-9-----------------6-9--------------------------------------|
A|7-77-----7777-5h7---7-77------------5-55---5-5555------55--99-----|
E|------------------5----------7777-7------7--------7-77--------7---|
And that girl I new……….
G|----------------------------------------------------------|
D|----------------------------------------------------------|
A|7-7777--------7-7777--------7-7777------------------------|
E|-------5-5555--------5-5555--------5-5555-7-7777-99-7-----|
It’s a crazy…….etc
G|-----------------------------------------------------------------|
D|----------------------------------------------9-99-99-999-9------|
A|7-77-7---------------------7-77-7-10-10-10-10--------------------|
E|-------5-55-5-7-77-7-77-7----------------------------------------|
            
Submit corrections

comments powered by Disqus
↑ Back to top | Sublime Bass for 5446. Lyrics for acoustic guitar and electric guitar. Tablatures and chords are parodies/interpretations of the original songs. You may use it for private study, scholarship, research or language learning purposes only