>
 >
Your Lips Are Red

Your Lips Are Red Bass Tabs

St Vincent - Your Lips Are Red chords, tabs, tablatures, lyrics

Guitar lessons | Add/correct | Request | Top 50 tabs Artists:  A B C D E F G H I J K L M N O P Q R S T U V W X Y Z 0-9

Your Lips Are Red Bass Tabs – St Vincent

CD, Sheet music, Poster

Do you like Your Lips Are Red? Share with your friends now
Bass TabsTabs
-------------------------------------------------------------------------------
		   Your Lips Are Red - St. Vincent
-------------------------------------------------------------------------------


 Tuning:Standard

 Verse (0.20 - 1.15)
G|----------------------------------------|
D|----------------------------------------|
A|3333333333333333-0-3333333333333333-0---|
E|----------------------------------------|

 Chorus
G|--------------------------------------|
D|--------------------------------------|
A|3-3-3-3--3--------3-3-3-3--------3----|
E|-----------5-3-5-----------5-3-5------|

 Pause

 (1.24)
G|-------------|
D|-------------|
A|0-3/---------|
E|-------------|

 (1.34)
G|------------------------|
D|------------------------|
A|-------5-3/-------------|
E|3-5-6-------------------|

 
 (1.37)
G|-------------|
D|-------------|
A|0-3/---------|
E|-------------|

 
 (1.47)
G|------------------------|
D|------------------------|
A|-------5-3/-------------|
E|3-5-6-------------------|


 (1.50)
G|--------------------------|
D|--------------------------|
A|------3--------3----------|
E|3-5-6----3-5-6------------|


 Chorus x2

 Pause

 (2.24 - 2.40)
G|----------------------------------------|
D|----------------------------------------|
A|0-3333333333333333-0-3333333333333333-0-|
E|----------------------------------------|

 Chorus x2

 Pause


 x2 (3.12)
G|--------------------------|
D|--------------------------|
A|--------------3~---33-----|
E|/3~---33----6-------------|

G|----------------------------5---|
D|------------------------3h5---5-|
A|--------------3~---33-----------|
E|3~---33-----6-------------------|


 x4
G|--------------------------------------5/---|
D|------------------------------------5------|
A|-------------------3----3-33-33-3-3--------|
E|3----3-33-33-3-3-6-------------------------|

G|-------------|
D|-------------|
A|-------------|
E|3/-----------|





Comments


Popular St Vincent tabs & chords
All My Stars Aligned Bass Tabs
Birth In Reverse Bass Tabs
Cheerleader Chords
Jesus Saves, I Spend Chords
What Me Worry? Chords
Cruel Tabs
Marry Me Tabs
Paris Is Burning Tabs
Paris Is Burning 2 Tabs
Marry Me Ukulele


Song lyrics



↑ Back to top | Tablatures and chords are parodies/interpretations of the original songs. You may use it for private study, scholarship, research or language learning purposes only
© 2014 AZChords.com Contact us | Privacy policy | DMCA | Add/correct tabs | Request tabs | Top 50 tabs