>
 >
The Bed

The Bed Bass Tabs

St Vincent - The Bed chords, tabs, tablatures, lyrics

Guitar lessons | Add/correct | Request | Top 50 tabs Artists:  A B C D E F G H I J K L M N O P Q R S T U V W X Y Z 0-9

The Bed Bass Tabs – St Vincent

CD, Sheet music, Poster

Do you like The Bed? Share with your friends now
Bass Tabs
-------------------------------------------------------------------------------
			     The Bed - St. Vincent
-------------------------------------------------------------------------------


 Tuning:Standard


 Chorus (0.41 & 2.00)
G|----------------------------------------------------------|
D|----------------------------------------------------------|
A|----2-------------2---------------------------------------|
E|2-4----2-4-4--2-4----2-4-4----2-4-5--2-4-4--2-4-5--2-4-5--|

G|-------------------------------------------------------|
D|-------------------------------------------------------|
A|-------------------------6---------------6--------2----|
E|5-7-8--5-7-8--5-7-8--5-7------7-5-2--5-7----7-5-2------|


 Pause

 Chorus (3.07)
G|------------------------------------------------|
D|--4--4--4--4--4--4--4----3--3--3--3--3--3--3----|
A|------------------------------------------------|
E|2---------------------1-------------------------|

G|-------------------------------------|
D|7--7--7--7--7--7--7--7--9--9--9--9---|
A|-------------------------------------|
E|-------------------------------------|





Comments


Popular St Vincent tabs & chords
Marrow Bass Tabs
The Party Bass Tabs
Black Rainbow Chords
Cheerleader Chords
Chloe In The Afternoon Tabs
Laughing With A Mouth Of Blood Tabs
Marrow 2 Tabs
Actor Out Of Work Ukulele
Cheerleader Ukulele
Laughing With A Mouth Of Blood Ukulele


Song lyrics



↑ Back to top | Tablatures and chords are parodies/interpretations of the original songs. You may use it for private study, scholarship, research or language learning purposes only
© 2014 AZChords.com Contact us | Privacy policy | DMCA | Add/correct tabs | Request tabs | Top 50 tabs