>
 >
Paris Is Burning 2

Paris Is Burning 2 Guitar Tabs

St Vincent - Paris Is Burning 2 chords, tabs, tablatures, lyrics

Guitar lessons | Add/correct | Request | Top 50 tabs Artists:  A B C D E F G H I J K L M N O P Q R S T U V W X Y Z 0-9

Paris Is Burning 2 Guitar Tabs – St Vincent

CD, Sheet music, Poster

Do you like Paris Is Burning 2? Share with your friends now
TabsTabs v2
This is my first Tablature; so I hope it is in proper format and whatnot.

Just repeat the sections as many times as needed to finish the sections.

And for those of you who couldn't guess;

 ||
.||
 || = Repeat
.||
 ||
 ||

INTRO
e-----------------------------------------------------------------------0-||
B-------------------------------------------------------------------------||
G------------------------5-4-5-7-5-4-5-4-2-1----5-4----2-1----5-4----2-1--||
D------------------------7-6-7-9-7-6-7-6-4-3----7-6----4-3----7-6----4-3--||
A-------------------0-----------------------------------------------------||
E-----------------0--------------------------0------0------0------0-------||

VERSE
e------------------------------0------------------------------------ ||
B------12--12----12----------10-10----10------9-9---9-----8-8---8---.||
G----10--10----10--10---10--9-----9--9--9--9-7-7-7-7-7-7-7-7-7-7-7-7 ||
D--12--------12-------12--10-------10----10-9-----9---9-8-----8---8-.||
A------------------------------------------------------------------- ||
E------------------------------------------------------------------- ||

PRE-CHORUS
e-------------------------------------------------------------------- ||
B--------------------------------------------------------------------.||
G----5---5---5---5---5---5---5---5----5---5---5---5----4---4---4---4- ||
D---7-7-7-7-7-7-7-7-7-7-7-7-7-7-7----6-6-6-6-6-6-6----6-6-6-6-6-6-6--.||
A--0---0---0---0---6---6---6---6--5-6---6---6---6--6-5---5---5---5--5 ||
E-------------------------------------------------------------------- ||

CHORUS
e----------------------|| --------------------------------------- ||
B----------------------||.---------------------------------------.||
G----------------------|| --5-4-5-7-5-4-5-4-2-1----5-4----2-1---- ||
D----------------------||.--7-6-7-9-7-6-7-6-4-3----7-6----4-3----.||
A-------------------0--|| -----------------------------------0--- ||
E-----------------0----|| ----------------------0------0--------- ||

**VERSE**

**PRE-CHORUS**

**CHORUS**

ETUDE
e------------------------------------ ||
B------------------------------------.||
G------12---------10------9-----7---- ||
D----10--10--10--9--9--9-7-7-7-6-6-6-.||
A--12------12--10----10-9---9-7---7-- ||
E------------------------------------ ||

OUTRO
e---------------------------------------------||
B---------------------------------------------||
G-5--4--5--7---5--4--5--4----5----9-----------||
D-7--6--7--9---7--6--7--6----7----/9----------||
A----------------------------------/11--------||
E-----------------------------------/0--------||





Comments


Popular St Vincent tabs & chords
Now, Now Bass Tabs
Actor Out Of Work Chords
Jesus Saves, I Spend Chords
Year Of The Tiger Chords
Chloe In The Afternoon Tabs
Human Racing Intro Tabs
Marrow Tabs
Champagne Year Ukulele
Jesus Saves I Spend Ukulele
What Me Worry Ukulele


Song lyrics



↑ Back to top | Tablatures and chords are parodies/interpretations of the original songs. You may use it for private study, scholarship, research or language learning purposes only
© 2014 AZChords.com Contact us | Privacy policy | DMCA | Add/correct tabs | Request tabs | Top 50 tabs