>
 >
Oh My God

Oh My God Guitar Tabs

St Vincent - Oh My God chords, tabs, tablatures, lyrics

Guitar lessons | Add/correct | Request | Top 50 tabs Artists:  A B C D E F G H I J K L M N O P Q R S T U V W X Y Z 0-9

Oh My God Guitar Tabs – St Vincent

CD, Sheet music, Poster

Do you like Oh My God? Share with your friends now
Tabs
-------------------------------------------------------------------------------
                             Oh My God - St. Vincent
-------------------------------------------------------------------------------

As played on Acoustic live on Lake Fever Sessions


Tuning: EADGBe (Standard)

Played in this order, then re arranged slightly later on the song, 
but everything is still the same. Hope you enjoy!


   Intro x4
e|---------------------------------------------------------------------------|
B|--------2-------2-------2-------2/3-------3-------3-------3-------3--------|
G|------0-------0-------0-------0---------0-------0-------0-------0----------|
D|----4-------4-------4-------4---------4-------4-------4-------4------------|
A|--0-------0-------0-------0---------0-------0-------0-------0--------------|
E|---------------------------------------------------------------------------|

e|---------------------------------------------------------------------------|
B|--------5--------5-------3-------3-------2-------2-------2-------2---------|
G|------0-------0--------0-------0-------0-------0-------0-------0-----------|
D|----4-------4--------4-------4-------4-------4-------4-------4-------------|
A|--0-------0--------0-------0-------0-------0-------0-------0---------------|
E|---------------------------------------------------------------------------| 

   (0:51)
e|---------------------------------------------------------------------------|
B|---------8--------8--------10--------10--------12--------12----------------|
G|-------0--------0--------0---------0---------0---------0-------------------|
D|----10-------10-------11--------11--------12--------12---------------------|
A|--0--------0--------0---------0---------0---------0------------------------|
E|---------------------------------------------------------------------------|

e|---------------------------------------------------------------------------|
B|---------14--------14--------17--------17--------15--------15--------------|
G|-------0---------0---------0---------0---------0---------0-----------------|
D|----14--------14--------17--------17--------16--------16-------------------|
A|--0---------0---------0---------0---------0---------0----------------------|
E|---------------------------------------------------------------------------|

e|---------------------------------------------------------------------------|
B|---------10--------10--------10--------10----------------------------------|
G|-------0---------0---------0---------0-------------------------------------|
D|----11--------11--------11--------11---------------------------------------|
A|--0---------0---------0---------0------------------------------------------|
E|---------------------------------------------------------------------------|

   (1:03)
e|---------------------------------------------------------------------------|
B|---------8--------8--------10--------10--------12--------12----------------|
G|-------0--------0--------0---------0---------0---------0-------------------|
D|----10-------10-------11--------11--------12--------12---------------------|
A|--0--------0--------0---------0---------0---------0------------------------|
E|---------------------------------------------------------------------------|

e|---------------------------------------------------------------------------|
B|---------14--------14-------5-------5-------3-------3--------10------------|
G|-------0---------0--------0-------0-------0-------0--------0---------------|
D|----14--------14--------4-------4-------4-------4-------11-----------------|
A|--0---------0---------0-------0-------0-------0-------0--------------------|
E|---------------------------------------------------------------------------|

   (1:16)
e|-----------12----------------12----------------12----------------12--------|
B|--------12----12----------12----12----------12----12----------12----12-----|
G|-----12----------12----12----------12----12----------12----12----------12--|
D|--12----------------12----------------11----------------11-----------------|
A|---------------------------------------------------------------------------|
E|---------------------------------------------------------------------------|

e|-----------10----------------10-------------10-----------10----------------|
B|--------10----10----------10----10--------8----8-------8----8--------------|
G|-----11----------11----11----------11---9--------9---9--------9------------|
D|--11----------------11----------------9------------9------------9----------|
A|---------------------------------------------------------------------------|
E|---------------------------------------------------------------------------|

e|-------7-----------7-------------------------------------------------------|
B|-----7---7-------7---7-----------------------------------------------------|
G|---7-------7---7-------7---------------------------------------------------|
D|-7-----------7-----------7-------------------------------------------------|
A|---------------------------------------------------------------------------|
E|---------------------------------------------------------------------------|
   
e|---------------------------------------------------------------------------|
B|--------5-------5-------5-7p5-----------5-------5-------5-7p5--------------|
G|------5-------5-------5-------5-------5-------5-------5--------------------|
D|----5-------5-------5-----------5---5-------5-------5----------------------|
A|--0-------0-------0---------------0-------0-------0------------------------|
E|---------------------------------------------------------------------------|

   (1:50)
e|--2p0---------2p0---------2p0---------2p0----------------------------------|
B|------2p0---------2p0---------2p0---------2p0------------------------------|
G|----------2p0---------2p0---------2p0---------2p0--------------------------|
D|---------------------------------------------------------------------------|
A|--0-----------0-----------0-----------0------------------------------------|
E|---------------------------------------------------------------------------|

   (3:30) (Repeated till the end)
e|---------------------------------------------------------------------------|
B|--------5------------------------------------------------------------------|
G|------------5--------------------------------------------------------------|
D|----5-----------5----------------------------------------------------------|
A|--0---0---0---0---0--------------------------------------------------------|
E|---------------------------------------------------------------------------|


************************************

| /   slide up
| \   slide down
| h   hammer-on
| p   pull-off
| ~   vibrato
| +   harmonic
| x   Mute note
| b   Bend
| pb  Pre-bend
| br  Bend release
| pbr Pre-bend release
| brb Bend release bend

************************************





Comments


Popular St Vincent tabs & chords
Laughing With A Mouth Of Blood Bass Tabs
Cruel Tabs
Human Racing Intro Tabs
Marrow Tabs
Marry Me Tabs
The Strangers Tabs
What Me Worry Tabs
Your Lips Are Red Tabs
Laughing With A Mouth Of Blood Ukulele
What Me Worry Ukulele


Song lyrics



↑ Back to top | Tablatures and chords are parodies/interpretations of the original songs. You may use it for private study, scholarship, research or language learning purposes only
© 2014 AZChords.com Contact us | Privacy policy | DMCA | Add/correct tabs | Request tabs | Top 50 tabs