>
 >
Now, Now

Now, Now Bass Tabs

St Vincent - Now, Now chords, tabs, tablatures, lyrics

Guitar lessons | Add/correct | Request | Top 50 tabs Artists:  A B C D E F G H I J K L M N O P Q R S T U V W X Y Z 0-9

Now, Now Bass Tabs – St Vincent

CD, Sheet music, Poster

Do you like Now, Now? Share with your friends now
Bass Tabs
-------------------------------------------------------------------------------
		     Now Now - St. Vincent
-------------------------------------------------------------------------------


 Tuning:Standard

 Intro (0.09)
G|---------------------|
D|---------------------|
A|----6~--------6~-----|
E|8/--------8/---------|

 Verse x6
G|--------------------|
D|--------------------|
A|-------6~-----------|
E|8/--4---------------|

 x1
G|--------------------|
D|-------/8~----------|
A|--------------------|
E|8/--4---------------|

 Chorus
G|------------------------------------------------|
D|-----6666-----------------6666------------------|
A|6666------6666-------6666------6666-------------|
E|---------------444-8----------------44-4-4------|

 Verse x3
G|----------------|
D|----------------|
A|--------6~------|
E|8/-4--8---------|

G|----------------|
D|----------------|
A|----------------|
E|8/-4--8/-4------|

 x3
G|----------------|
D|----------------|
A|--6-------------|
E|8----8/-4-------|

 x1
G|-----------|
D|/8~--------|
A|-----------|
E|-----------|

 Chorus

 Bridge (1.24)
G|--------------------------------------------------------|
D|---------5-6--------------6-8--------------8-10-6~------|
A|55-66--------6~--55-66--------6~--55-66-----------------|
E|------4~---------------4~---------------4~--------------|

 x3
G|-------------------|
D|-------------------|
A|55-66--------------|
E|------44-66--------|

 x1
G|-------------|
D|-------------|
A|55-66--------|
E|-------------|



 (1.56)
G|------------------|
D|6-----------------|
A|---6------6-------|
E|-----4--8---------|

 x7
G|----------------|
D|----------------|
A|--------6~------|
E|8/-4--8---------|

G|----------------|
D|----------------|
A|----------------|
E|2/-4--2/-4------|

G|---------|
D|---------|
A|---------|
E|2/-4-----|

 Chorus

 Bridge

 (3.20)
G|-------------|
D|6-5----------|
A|----6~-------|
E|-------------|

G|-----------------------------|
D|-----------------------------|
A|6~----6~----6~----6~---------|
E|-----------------------------|

 x8
G|--------------------|
D|--------------------|
A|----5-6-8~----------|
E|6-8-----------------|


G|-----------|
D|-----------|
A|6~---------|
E|-----------|





Comments


Popular St Vincent tabs & chords
Birth In Reverse Bass Tabs
Marrow Bass Tabs
The Bed Bass Tabs
What Me Worry? Bass Tabs
Actor Out Of Work 1 Chords
Human Racing Intro Tabs
Marry Me Tabs
Oh My God Tabs
Paris Is Burning Tabs
Surgeon Tabs


Song lyrics



↑ Back to top | Tablatures and chords are parodies/interpretations of the original songs. You may use it for private study, scholarship, research or language learning purposes only
© 2014 AZChords.com Contact us | Privacy policy | DMCA | Add/correct tabs | Request tabs | Top 50 tabs