>
 >
Marry Me

Marry Me Guitar Tabs

St Vincent - Marry Me chords, tabs, tablatures, lyrics

Guitar lessons | Add/correct | Request | Top 50 tabs Artists:  A B C D E F G H I J K L M N O P Q R S T U V W X Y Z 0-9

Marry Me Guitar Tabs – St Vincent

CD, Sheet music, Poster

Do you like Marry Me? Share with your friends now
Bass TabsChordsTabsUkulele
"Marry Me" - St. Vincent

submitted by John

These are the chords Annie plays live.  The rhythm is pretty straightforward but 
she'll vary things here and there.


Intro/Chorus
e----------------|----------------------------|
B---8---1---10---|------13--------------------|
G---9---2---10---|------13--------------------|
D---9---2---10---|------12--------------------|
A---x---x----x---|-------x--------------------|
E---8---1---10---|--12--13--------------------|
                x2

Verse/Outro
e---------------------------------------------|
B---8---1-------------------------------------|
G---9---2-------------------------------------|
D---9---2-------------------------------------| 
A---x---x-------------------------------------|
E---8---1-------------------------------------|


Bridge
e--------------------|---1---4---3------------|
B---10-------6-------|---1---4---3------------|
G---10---4---7---5---|---3---5---4------------|
D---10---3---8---4---|---2---6---5------------|
A----x---x---x---3---|---2---6---5------------|
E---10---3---6---2---|---1---4---3------------|
                    x2

Last Chorus
e----------------|------------|---------------|
B---8---1---10---|-------10---|-------13------|
G---9---2---10---|---4---10---|-------13------|
D---9---2---10---|---3---10---|-------12------|
A---x---x----x---|---x----x---|--------x------|
E---8---1---10---|---3---10---|---12--13------|
                x2           x2
Intro x1
Verse x4
Chorus x1
Verse x4
Bridge x1
Last Chorus x1
Outro to your heart's content





Comments


Popular St Vincent tabs & chords
Actor Out Of Work Bass Tabs
Birth In Reverse Bass Tabs
Laughing With A Mouth Of Blood Bass Tabs
Your Lips Are Red Bass Tabs
Actor Out Of Work Chords
Champagne Year Chords
Birth In Reverse Tabs
Cruel 1 Tabs
Paris Is Burning Tabs
Surgeon Tabs


Song lyrics



↑ Back to top | Tablatures and chords are parodies/interpretations of the original songs. You may use it for private study, scholarship, research or language learning purposes only
© 2014 AZChords.com Contact us | Privacy policy | DMCA | Add/correct tabs | Request tabs | Top 50 tabs