>
 >
Marry Me

Marry Me Bass Tabs

St Vincent - Marry Me chords, tabs, tablatures, lyrics

Guitar lessons | Add/correct | Request | Top 50 tabs Artists:  A B C D E F G H I J K L M N O P Q R S T U V W X Y Z 0-9

Marry Me Bass Tabs – St Vincent

CD, Sheet music, Poster

Do you like Marry Me? Share with your friends now
Bass TabsChordsTabsUkulele
-------------------------------------------------------------------------------
		      Marry Me - St. Vincent
-------------------------------------------------------------------------------


 Tuning:Standard

 Verse (0.34)
G|----------5--------------------------5-----------------|
D|--------5---------------3----------5-------------------|
A|3--3--3---------------3----3--3--3---------------------|
E|-------------1--1--1--------------------1--1--1-1-45---|

G|----------5--------------------------5----------------|
D|--------5---------------3----------5------------------|
A|3--3--3---------------3----3--3--3--------------------|
E|-------------1--1--1--------------------1--1--1--11~--|

G|--------------------|
D|--------------------|
A|------------3-------|
E|1---3---5-----------|

  
 Chorus
G|------------------------------------------------------------------------|
D|------------------------------------------------------------------------|
A|3----33----33-33------------55----55-55--33----33----33-----------------|
E|-----------------/-1----11---------------------------------11--11--11---|

G|--------------------------------------|
D|------77----33--33--33----66----88----|
A|55------------------------------------|
E|--------------------------------------|

 
 Verse
 G|----------5--------------------------5---------------|
D|--------5---------------3----------5------------------|
A|3--3--3---------------3----3--3--3--------------------|
E|-------------1--1--1--------------------1--1--1-1-5---|

G|--------5~------------------------5~-----------------------|
D|----5~----------------2~------5~--------------2/9--3--5----|
A|3~--------------0-2~------3~--------------0-2--------------|
E|------------1~------------------------1~-------------------|

G|------------------------------|
D|------5~----------------------|
A|5~----------1~----------------|
E|-------------------2~---------|

G|----------------------------------------------|
D|----------55~--55~----------------------------|
A|3--5--55------------11~--11~------------------|
E|------------------------------22~--22~--------|

 Pause

 Chorus (2.50)
G|----------------5------------------------------------------------------|
D|--------------5------------------------7---------------------------33--|
A|3----33----33---------------55----55-5----33----33----33-------33------|
E|-----------------/-1----11---------------------------------11----------|

G|-------------------------------|
D|-----------7-------------------|
A|55----55-5----22--22--22-------|
E|-------------------------------|


G|--------------------4-------------------------------------------|
D|------------------2---2----------33--33--33----3~--5~--6~--5-3--|
A|5---55--22-22-22---------5---55---------------------------------|
E|----------------------------------------------------------------|

 (3.41 - 4.41)
G|------------5-------------------------5-----------------|
D|---------5-------------3------------5-------------3-----|
A|3--33--33------------3----33--33-33-------------3-------|
E|--------------1-11-1--------------------1-11-1----------|





Comments


Popular St Vincent tabs & chords
Actor Out Of Work Bass Tabs
The Party Bass Tabs
Champagne Year Chords
Jesus Saves, I Spend Chords
Cruel Tabs
Marrow Tabs
Paris Is Burning 2 Tabs
What Me Worry Tabs
Actor Out Of Work Ukulele
Cheerleader Ukulele


Song lyrics



↑ Back to top | Tablatures and chords are parodies/interpretations of the original songs. You may use it for private study, scholarship, research or language learning purposes only
© 2014 AZChords.com Contact us | Privacy policy | DMCA | Add/correct tabs | Request tabs | Top 50 tabs