>
 >
Marrow

Marrow Bass Tabs

St Vincent - Marrow chords, tabs, tablatures, lyrics

Guitar lessons | Add/correct | Request | Top 50 tabs Artists:  A B C D E F G H I J K L M N O P Q R S T U V W X Y Z 0-9

Marrow Bass Tabs – St Vincent

CD, Sheet music, Poster

Do you like Marrow? Share with your friends now
Bass TabsTabs
-------------------------------------------------------------------------------
	             Marrow - St. Vincent
-------------------------------------------------------------------------------


 Tuning:Half-Step Down


 Chorus (0.54)
Gb|------------------------------|
Db|------------------------------|
Ab|------------------------------|
Eb|2-2-2---2----2-2-2---2--------|

Gb|-----------------------------|
Db|-----------------------------|
Ab|-------------7-5-4---4-------|
Eb|2-2-2---2----------7-----2---|

 Post-Chorus x2(1.14)
Gb|-------------------------------|
Db|-------------------------------|
Ab|-------------------------------|
Eb|2-2-2-2-2/4--2-2-2-2-0-2-------|

 
 Verse (1.32)
Gb|----------|
Db|----------|
Ab|----------|
Eb|2-2-0-----|

 x2
Gb|-------------------|
Db|-------------------|
Ab|-------------------|
Eb|2-2/4----2-2-0-----|


 Chorus
Gb|------------------------------|
Db|------------------------------|
Ab|------------------------------|
Eb|2-2-2---2----2-2-2---2--------|

Gb|----------------|
Db|----------------|
Ab|7-5-4---4-------|
Eb|------7-----2---|


 Bridge (1.55 - 2.11)
Gb|----------------------|
Db|----------------------|
Ab|----------------------|
Eb|2-2-2-2-2-2-2-2-------|

 (2.11 - 2.29)
Gb|-------------------------------|
Db|-------------------------------|
Ab|-------------------------------|
Eb|2-2-2-2-2/4--2-2-2-2-0-2-------|


 Pause

 x4 (2.37)
Gb|----------------------|
Db|----------------------|
Ab|----------------------|
Eb|2~--2/14~-------------|

 (2.47 - 3.24)
Gb|----------------------|
Db|----------------------|
Ab|----------------------|
Eb|2-2-2-2-2-2-2-2-------|





Comments


Popular St Vincent tabs & chords
Marry Me Bass Tabs
What Me Worry? Bass Tabs
Black Rainbow Chords
Marry Me Chords
Surgeon Chords
Year Of The Tiger Chords
Marrow Tabs
Paris Is Burning 2 Tabs
Surgeon Tabs
Laughing With A Mouth Of Blood Ukulele


Song lyrics



↑ Back to top | Tablatures and chords are parodies/interpretations of the original songs. You may use it for private study, scholarship, research or language learning purposes only
© 2014 AZChords.com Contact us | Privacy policy | DMCA | Add/correct tabs | Request tabs | Top 50 tabs