>
 >
Moving Very Slowly

Moving Very Slowly Guitar Tabs

Strong Bad - Moving Very Slowly chords, tabs, tablatures, lyrics

Guitar lessons | Add/correct | Request | Top 50 tabs Artists:  A B C D E F G H I J K L M N O P Q R S T U V W X Y Z 0-9

Moving Very Slowly Guitar Tabs – Strong Bad

CD, Sheet music, Poster

Do you like Moving Very Slowly? Share with your friends now
Tabs
MOVING VERY SLOWLY



Dropped D: D A D G B E

Distortion

6
- Time
8

| . palm mute
| ~ vibrato
| = hold note
| / slide up
| \ slide down


Guitars 1 & 2 (Guitar 2 plays two times)

|------------|------------|------------|------------|
|------------|------------|------------|------------|
|------------|------------|2===========|============|
|------------|------------|0===========|============|
|0===========|============|============|============|
|0===========|============|============|============|

|------------|------------|------------|------------|
|------------|------------|------------|------------|
|------------|------------|3===========|============|
|------------|------------|1===========|============|
|1===========|============|============|============|
|1===========|============|============|============|


While Guitar 2 repeats, Guitar 1 plays:

|------------|----------//|5===========|============|
|------------|------------|------------|------------|
|------------|------------|------------|------------|
|------------|------------|------------|------------|
|0===========|============|============|============|
|0===========|============|============|============|

|------------|----------//|6===========|============|
|------------|------------|------------|------------|
|------------|------------|------------|------------|
|------------|------------|------------|------------|
|1===========|==========--|------------|------------|
|1===========|==========--|------------|------------|

[0:21]

Guitars 1 & 2

|------------|------------|------------|------------|
|------------|------------|------------|------------|
|------------|------------|------------|------------|
|------------|------------|------------|------------|
|0-000-7-6-5-|0-000-5-6-7-|0-000-7-6-5-|0-----------|
|0-000-7-6-5-|0-000-5-6-7-|0-000-7-6-5-|0-----------|
 . ... . . .  . ... . . .  . ... . . .  .

[0:26]

Guitars 1 & 2 (play 4 times)

|------------|------------|
|------------|------------|
|------------|------------|
|------------|------------|
|0-000-7-6-5-|0-000-5-6-7-|
|0-000-7-6-5-|0-000-5-6-7-|
 . ... . . .  . ... . . .

[0:37]

Guitars 1 & 2 (play 2 times)

|------------|------------|
|------------|------------|
|------------|------------|
|------------|------------|
|1===========|============|
|1===========|============|

|------------|------------|------------|------------|
|------------|------------|------------|------------|
|------------|------------|------------|------------|
|------------|------------|------------|------------|
|0-000-7-6-5-|0-000-5-6-7-|0-000-7-6-5-|0-000-5-6-7-|
|0-000-7-6-5-|0-000-5-6-7-|0-000-7-6-5-|0-000-5-6-7-|
 . ... . . .  . ... . . .  . ... . . .  . ... . . .

[0:52]

Guitars 1 & 2 (play 4 times)

|------------|------------|
|------------|------------|
|------------|------------|
|------------|------------|
|0-000-7-6-5-|0-000-5-6-7-|
|0-000-7-6-5-|0-000-5-6-7-|
 . ... . . .  . ... . . .

[1:02]

Guitars 1 & 2 (play 4 times, start palm muted and slowly unmute)

|------------|------------|
|------------|------------|
|------------|------------|
|------------|------------|
|3-333-4-444-|5-555-6-666-|
|3-333-4-444-|5-555-6-666-|

[1:12]

Guitar 1 (tremolo picking, play 2 times)

|------------|------------|------------|------------|
|15==========|============|13==========|============|
|------------|------------|------------|------------|
|------------|------------|------------|------------|
|------------|------------|------------|------------|
|------------|------------|------------|------------|

|------------|------------|------------|------------|
|12==========|============|11==========|============|
|------------|------------|------------|------------|
|------------|------------|------------|------------|
|------------|------------|------------|------------|
|------------|------------|------------|------------|


Guitar 2 (play 2 times)

|------------|------------|------------|------------|
|------------|------------|------------|------------|
|------------|------------|------------|------------|
|7-777-7-777-|7-777-7-777-|5-555-5-555-|5-555-5-555-|
|5-550-5-550-|5-550-5-550-|3-330-3-330-|3-330-3-330-|
|------------|------------|------------|------------|

|------------|------------|------------|------------|
|------------|------------|------------|------------|
|------------|------------|------------|------------|
|4-444-4-444-|4-444-4-444-|3-333-3-333-|3-333-3-333-|
|2-220-2-220-|2-220-2-220-|1-110-1-110-|1-110-1-110-|
|------------|------------|------------|------------|


Solo

|---------15-------17----------------|18-------17-------15-------17-------|
|18-15-15----15-15----15-15-18-15-15-|---15-15----15-15----15-15----15-15-|
|------------------------------------|------------------------------------|
|------------------------------------|------------------------------------|
|------------------------------------|------------------------------------|
|------------------------------------|------------------------------------|

|---------15-------17-------15-------|18-------17-------15-------17-------|
|18-15-15----15-15----15-15----15-15-|---15-15----15-15----15-15----15-15-|
|------------------------------------|------------------------------------|
|------------------------------------|------------------------------------|
|------------------------------------|------------------------------------|
|------------------------------------|------------------------------------|

|15----------------15----------------|17-------15-------------------------|
|---15-15-18-15-15----15-15-18-15-15-|---15-15----15-15-18-15-15-18-15-15-|
|------------------------------------|------------------------------------|
|------------------------------------|------------------------------------|
|------------------------------------|------------------------------------|
|------------------------------------|------------------------------------|

|17-------15----------------15-------|17-------15-------------------------|
|---15-15----15-15-18-15-15----15-15-|---15-15----15-15-18-15-15-18-15-15-|
|------------------------------------|------------------------------------|
|------------------------------------|------------------------------------|
|------------------------------------|------------------------------------|
|------------------------------------|------------------------------------|

|15-------17-------18-------17-------|18-------20-------18-------17-------|
|---15-15----15-15----15-15----15-15-|---15-15----15-15----15-15----15-15-|
|------------------------------------|------------------------------------|
|------------------------------------|------------------------------------|
|------------------------------------|------------------------------------|
|------------------------------------|------------------------------------|

|17-------17-------18-------15-------|17-------18-------17-------15-------|
|---15-15----15-15----15-15----15-15-|---15-15----15-15----15-15----15-15-|
|------------------------------------|------------------------------------|
|------------------------------------|------------------------------------|
|------------------------------------|------------------------------------|
|------------------------------------|------------------------------------|

|15----------------------------------|15----------------------------------|
|---15-15-18-15-15-17-15-15-18-15-15-|---15-15-18-15-15-17-15-15-18-15-15-|
|------------------------------------|------------------------------------|
|------------------------------------|------------------------------------|
|------------------------------------|------------------------------------|
|------------------------------------|------------------------------------|

|15----------------------------------|15----------------------------------|
|---15-15-18-15-15-17-15-15-18-15-15-|---15-15-18-15-15-17-15-15-18-15-15-|
|------------------------------------|------------------------------------|
|------------------------------------|------------------------------------|
|------------------------------------|------------------------------------|
|------------------------------------|------------------------------------|

[1:34]
|------------------------------------|------------------------------------|
|16~~~~~~~~~~~~~~~~~~~~~~~~~~~~~~~~~~|~~~~~~~~~~~~~~~~~~~~~~~~~~~\\\\\\\\\|
|------------------------------------|------------------------------------|
|------------------------------------|------------------------------------|
|------------------------------------|------------------------------------|
|------------------------------------|------------------------------------|

[1:34]

Guitars 1 & 2 (play 2 times)

|------------|------------|
|------------|------------|
|------------|------------|
|------------|------------|
|1===========|============|
|1===========|============|

|------------|------------|------------|------------|
|------------|------------|------------|------------|
|------------|------------|------------|------------|
|------------|------------|------------|------------|
|0-000-7-6-5-|0-000-5-6-7-|0-000-7-6-5-|0-000-5-6-7-|
|0-000-7-6-5-|0-000-5-6-7-|0-000-7-6-5-|0-000-5-6-7-|
 . ... . . .  . ... . . .  . ... . . .  . ... . . .

[1:48]

Guitars 1 & 2 (play 4 times)

|------------|------------|
|------------|------------|
|------------|------------|
|------------|------------|
|0-000-7-6-5-|0-000-5-6-7-|
|0-000-7-6-5-|0-000-5-6-7-|
 . ... . . .  . ... . . .

[1:58]

Guitars 1 & 2 (play 4 times, start palm muted and slowly unmute)

|------------|------------|
|------------|------------|
|------------|------------|
|------------|------------|
|3-333-4-444-|5-555-6-666-|
|3-333-4-444-|5-555-6-666-|


On the fourth time, Guitar 1 plays:

|------------|------------|
|6-666-7-777-|8-888-9-99--|
|5-555-6-666-|7-777-8-880-|
|3-333-4-444-|5-555-6-660-|
|------------|------------|
|------------|------------|

[2:09]

Guitars 1 & 2 (play 2 times, then Guitar 2 plays 5 times with fade out)

|------------|------------|------------|------------|
|------------|------------|------------|------------|
|------------|------------|------------|------------|
|7-777-7-777-|7-777-7-777-|5-555-5-555-|5-555-5-555-|
|5-550-5-550-|5-550-5-550-|3-330-3-330-|3-330-3-330-|
|------------|------------|------------|------------|

|------------|------------|------------|------------|
|------------|------------|------------|------------|
|------------|------------|------------|------------|
|4-444-4-444-|4-444-4-444-|3-333-3-333-|3-333-3-333-|
|2-220-2-220-|2-220-2-220-|1-110-1-110-|1-110-1-110-|
|------------|------------|------------|------------|

[2:29]

Solo (tremolo picking) while Guitar 2 repeats previous riff

|------------|------------|------------|------------|
|------------|------------|------6=====|8=====10====|
|------------|------7=====|5=====------|------------|
|------------|7=====------|------------|------------|
|5=====8=====|------------|------------|------------|
|------------|------------|------------|------------|

|------------|------------|------------|------------|
|12====13====|15====17====|18====20====|14==========|
|------------|------------|------------|------------|
|------------|------------|------------|------------|
|------------|------------|------------|------------|
|------------|------------|------------|------------|

I'm lazy and suck too much to figure out the rest of the solo.
A bit after the song fades out, it fades back in with the same riff with some 
solo and continues like so for a few bars before it ends.





Comments


Popular Strong Bad tabs & chords
Everybody Everybody Bass Tabs
Everybody To The Limit Bass Tabs
Trogdor Bass Tabs
Circles Tabs
Personal Favorites Email Tabs
Teen Girl Squad Tabs
Trogdor 1 Tabs
Trogdor 3 Tabs
Trogdor The Burninator Tabs
Wings Of An E-mail Tabs


Song lyrics



↑ Back to top | Tablatures and chords are parodies/interpretations of the original songs. You may use it for private study, scholarship, research or language learning purposes only
© 2014 AZChords.com Contact us | Privacy policy | DMCA | Add/correct tabs | Request tabs | Top 50 tabs