» » »

Homestar Bass tabs (ver.1)

Artists:  A B C D E F G H I J K L M N O P Q R S T U V W X Y Z # 

Homestar Bass tabs (ver.1)

Strong Bad
Rating:
0/5 (0 votes)

Hard to play? Try these video lessons and learn fast.
                (Theme)
Chorus:
G--------------------------------
D--------------------------------
A--------------------------------
E-3-3-3-3-3-3-3-3-2-2-2-2-2-2-2-0

G--------------------------------
D--------------------------------
A--------------3-4-5-------------
E-3-4-5-0------------------------

Verse
G--------------------------------
D--------------------------------
A--------------------------------
E-3-3-3-3-3-3-3-3-3-2-2-2-2-2-2-2

G--------------------------------
D--------------------------------
A--------------------------------
E-2-0-0-0-0-0-0-0-0-3-4-5--------
            
Hard to play? Try these video lessons and learn fast. | Correct




comments powered by Disqus
↑ Back to top | Tablatures and chords are parodies/interpretations of the original songs. You may use it for private study, scholarship, research or language learning purposes only