» » »

Strong Bad, Everybody To The Limit Bass tabs (ver.1)

Artists:  A B C D E F G H I J K L M N O P Q R S T U V W X Y Z # 

Everybody To The Limit Bass tabs (ver.1)

Strong Bad Tabs
 Rating:
4/5 (4 votes)
Everybody To The Limit lessons Tabs too difficult? Try these video lessons and learn fast
1
                -----------------------------------------------------------------------------			 
-----------------------------------------------------------------------------


Intro (0:12)
G|----------------------|
D|-------5------5-7-----|
A|----------------------|
E|---5-------5----------|

Chorus (0:20) 
G|----------------------|--------------7-5-----|
D|-------7------7-5-----|-------7--------------|
A|----------------------|----------------------|
E|---5-------5----------|---5-------5----------|

Verse 1 (0:38)
G|----------------------|
D|-------5------5-7-----|
A|----------------------|
E|---5-------5----------|

Chorus (0:47)

Verse 2 (1:04)
G|----------------------|
D|-------5------5-7-----|
A|----------------------|
E|---5-------5----------|

Chorus(1:13)

Outro (1:22)
G|----------------------|--------------7-5-----|
D|-------7------7-5-----|-------7--------------|
A|----------------------|----------------------| X2
E|---5-------5----------|---5-------5----------|

G|----------------------|
D|-------7------7-5-----|
A|----------------------|
E|---5-------5----------|

| /  slide up
| \  slide down
| h  hammer-on
| p  pull-off
| ~  vibrato
| +  harmonic
| x  Mute note
=============================================================================
            
Submit corrections

comments powered by Disqus
↑ Back to top | Strong Bad Bass for Everybody To The Limit. Lyrics for acoustic guitar and electric guitar. 1 Tablatures and chords are parodies/interpretations of the original songs. You may use it for private study, scholarship, research or language learning purposes only