» » »

Cgnu Tabs (ver.1)

Artists:  A B C D E F G H I J K L M N O P Q R S T U V W X Y Z # 

Cgnu Tabs (ver.1)

Strong Bad
Rating:
0/5 (0 votes)

Hard to play? Try these video lessons and learn fast.
                (Theme)
Song- CGNU Theme
Artist- Strong Bad (the Chap Brothers)
ok, this is a pretty good song off of homestarrunner.com
at the end of one of the famous strong bad's email this song is played, and it gives the notes
all that is needed is to find the pitch, so i did that AND tabbed it, check it out y'all


e----------------------------------|
D----------------------------------|
G----2-----0-----3--0-0--0-------0-|
D--------3---3-0-----------3-2-3---|
A--3-------------------------------|
E----------------------------------|

e----------------------------------|
D----------------------------------|
G----2-----0-----3--0-0--0---------|
D--------3---3-0-----------3-2-3---|
A--3-------------------------------|
E----------------------------------|
            
Hard to play? Try these video lessons and learn fast. | Correct




comments powered by Disqus
↑ Back to top | Tablatures and chords are parodies/interpretations of the original songs. You may use it for private study, scholarship, research or language learning purposes only