» » »

Strokes, You Only Live Once Tabs (ver.1)

Artists:  A B C D E F G H I J K L M N O P Q R S T U V W X Y Z # 

You Only Live Once Tabs (ver.1)

Strokes Tabs
 Rating:
4/5 (4 votes)
You Only Live Once lessons Tabs too difficult? Try these video lessons and learn fast
1
                ----------------------------------------------------------------------------
                    You Only Live Once - The Strokes
----------------------------------------------------------------------------


Tuning: Standard E
Nick Valensi part (lead guitar)

Intro/Verse: [Moderate Overdrive]

e|----9-9-9-9-9--7-7-7-7-7----9-9-9-9-9------------------|
B|----9-9-9-9-9--9-9-9-9-9----7-7-7-7-7--11-11-11-11-11--|
G|----9-9-9-9-9--9-9-9-9-9----8-8-8-8-8--11-11-11-11-11--|
D|---------------------------------------11-11-11-11-11--|
A|-------------------------------------------------------|
E|--0-----------------------7----------------------------|

Verse Variation Nº1:

e|----9-9-9-9-9--7-7-7-7-7----9-9-9-9-9------------------|
B|----9-9-9-9-9--9-9-9-9-9----7-7-7-7-7--11-11-11-12-11--|
G|----9-9-9-9-9--9-9-9-9-9----8-8-8-8-8--11-11-11-13-11--|
D|---------------------------------------11-11-11-11-11--|
A|-------------------------------------------------------|
E|--0-----------------------7----------------------------|

Verse Variation Nº2:

e|----9-9-9-9-9--7-7--x--11-9----9-9-9-9-9----------------14----------|
B|----9-9-9-9-9--9-9--x--9--9----7-7-7-7-7--11-11-11--------14--------|
G|----9-9-9-9-9--9-9-(9)-9--9----8-8-8-8-8--11-11-11-12/15----15------|
D|-------------------(9)--------------------11-11-11------------------|
A|--------------------------------------------------------------------|
E|--0--------------------------7---------------------------------(0)--|

Chorus:

e|---4---7---11---9\----2---6---9----7\---4---7---11---9\----2---6---9----|
B|---5---9---12---11\---4---7---11---9\---5---9---12---11\---4---7---11---|
G|---6---9---13---11\---4---8---11---9\---6---9---13---11\---4---8---11---|
D|--(6)-(9)-(13)-(11)\-(4)-(8)-(11)-(9)\-(6)-(9)-(13)-(11)\-(4)-(8)-(11)--|
A|------------------------------------------------------------------------|
E|------------------------------------------------------------------------|

First Chorus Solo [Distortion]


e|-------------------------------------------11-9---------------------------|
B|12b(14)br12-11-9--7------7\5-0------4\2-0-------11b(12)-11--9-------9\7-0-|
G|------------------9b(11)-------6b(8)------------------------11b(13)-------|
D|--------------------------------------------------------------------------|
A|--------------------------------------------------------------------------|
E|--------------------------------------------------------------------------|


e|-----------12-11-9----------------------------------------11-9------------|
B|-----5\4-0--------11b(12)-11-11-14-17-14-12-17-12-11-14-11----11b(12)-11\-|
G|7b(9)---------------------------------------------------------------------|
D|--------------------------------------------------------------------------|
A|--------------------------------------------------------------------------|
E|--------------------------------------------------------------------------|

Second Chorus Solo [Distortion]


e|-------------------------------------------11-9---------------------------|
B|-12b(14)br12-11-9--7------7\5-0------4\2-0-------11b(12)-11-9-------9\7-0-|
G|-------------------9b(11)-------6b(8)-----------------------11b(13)-------|
D|--------------------------------------------------------------------------|
A|--------------------------------------------------------------------------|
E|--------------------------------------------------------------------------|


e|-----------12-11-9----------------------------------------11-9--|
B|------5\4-0-------11b(12)-11-11-14-17-14-12-17-12-11-14-11------|
G|-7b(9)----------------------------------------------------------|
D|----------------------------------------------------------------|
A|----------------------------------------------------------------|
E|----------------------------------------------------------------|

e|-----------------------------------|
B|-11b(12)br11-9------9\7-0------5-4/|
G|-------------11b(13)------7b(9)----|
D|-----------------------------------|
A|-----------------------------------|
E|-----------------------------------|

Outro [Moderate Overdrive]

Use the pick for the second and third strings and your middle finger for the first 
string [Hybrid Picking]

E|------11------11------11-----|
B|/12------12------12------12--|
G|----11--11--11--11--11--11---|  Repeat
D|-----------------------------|
A|-----------------------------|
E|-----------------------------|


************************************
| ()  Opcional note
| /   slide up
| \   slide down
| h   hammer-on
| p   pull-off
| ~   vibrato
| +   harmonic
| x   Mute note
| b   Bend
| pb  Pre-bend
| br  Bend release
| pbr Pre-bend release
| brb Bend release bend

************************************
            
Submit corrections

comments powered by Disqus
↑ Back to top | Strokes Tabs for You Only Live Once. Lyrics for acoustic guitar and electric guitar. 1 Tablatures and chords are parodies/interpretations of the original songs. You may use it for private study, scholarship, research or language learning purposes only