>
 >
Hallelujah

Hallelujah Guitar Tabs

Street To Nowhere - Hallelujah chords, tabs, tablatures, lyrics

Guitar lessons | Add/correct | Request | Top 50 tabs Artists:  A B C D E F G H I J K L M N O P Q R S T U V W X Y Z 0-9

Hallelujah Guitar Tabs – Street To Nowhere

CD, Sheet music, Poster

Do you like Hallelujah? Share with your friends now
Tabs
-----------------------------------------------------------------------------
-----------------------------------------------------------------------------


Tuning: Standard


Verse
        C      Am7    C     Am7   C     Am7
---------------------|-----------|-----------|-----------|
-----------1-----1---|--1-----1--|--1-----1--|--1-----1--|
------------0-----0--|---0-----0-|---0-----0-|---0-----0-|
---------------------|-----------|-----------|-----------|
--------3----2-0---2-|3---2-0---2|3---2-0---2|3---2-0---2|
---------------------|-----------|-----------|-----------|
                           Well I heard there was...
F        G        C      Am7    C   F     G     Am
----------------|------------|-----------|-3(3)3--0-------|
-----1-------3--|---1-----1--|---1---1---|-3(3)3--1-------|
------2-------4-|----0---0-0-|--0-0--2-2-|-4(4)4--2---2---|
-3-3---3-5-5---5|------------|-------3--3|-5(5)5--2----2--|
-3-3-----5-5----|-3---2-0---2|-3---2-3---|-5(5)5--0-----0-|
-1-1-----3-3----|------------|-------1---|-3(3)3--0-------|

F      G      Am    E/G#
-1-1-1-3-3-3|-0-0---0----|
-1-1-1-3-3-3|-1-1--0-0--|
-2-2-2-4-4-4|-2---2-1--1-|
-3-3-3-5-5-5|-2-----2---2|
-3-3-3-5-5-5|-0-----2----|
-1-1-1-3-3-3|-0-----4----|

Chorus
 Am            F             Am            F
-0-0------0--|-------------|----0-----0--|----------------|
-1--1------1-|-------------|-----1-----1-|----------------|
-2---2---2--2|----3-----3--|---2--2--2--2|----3-----3-----|
-2------2----|---2-2---2-2-|--2-----2----|---2-2---2-2----|
-0-----0-----|--2---2-2---2|-0-----0-----|--2---2-2---2---|
-0-----------|-1-----1-----|-------------|-1-----1--------|

 C      G        C     Am7     C     Am7
----0----------|-------------|-------------|--------------|
-----1------0--|----1-----1--|----1-----1--|--------------|
---0--0------0-|---0-0---0-0-|---0-0---0-0-|--------------|
--2-----0-----2|--2-----2----|--2-----2----|--------------|
-3------2------|-3----20----2|-3----20----2|--------------|
--------3------|-------------|-------------|--------------|

Into Verse 2
  C     Am7     C     Am7     etc.
|-------------|-------------|--------------|
|----1-----1--|----1-----1--|--------------|
|---0-0---0-0-|---0-0---0-0-|--------------|
|--2-----2----|--2-----2----|--------------|
|-3----20----2|-3----20----2|--------------|
|-------------|-------------|--------------|

Into Interlude, same with more strumming into verse 3
  C       Am7     C       Am7     etc.
|-0-00----0-00---|0-00----0-00---|---------|
|-1-11----1-11---|1-11----1-11---|---------|
|-0-00----0-00---|0-00----0-00---|---------|
|-2-22-20-2-22-20|2-22-20-2-22-20|---------|
|-3-33-32-0-00-02|3-33-32-0-00-02|---------|
|------xx------xx|-----xx------xx|---------|

Bridge
F E Am F G

Once you get the pattern down you can just use this lead sheet.
(The /B is just the second string second fret part of the pattern above, I left them out
the later verses because you should have the idea by then).

C Am7 C Am7

    /B C              /B Am7           /B
Well I heard there was a secret chord
C                /B Am7
David played and it pleased the lord
/B  F                G              C       Am7
But you don't really care for music, do ya?
    /B C               /B  F           G
And it goes like this, the fourth, the fifth
Am                    F      G
The minor fall and the major lift
    Am              E            Am
The baffled king composin' "Hallelujah"

     F
     Am
     F
     C  G  C     Am7 C Am7
Hallelu-   jah

     /B   C                     /B Am7          /B
Well your faith was strong but you needed proof
C            /B Am7
Saw her bathing on the roof
/B  F             G         C       /B Am7
Her beauty in the moonlight overthrew ya
    /B  C          /B F       G
And she tied you to a kitchen chair
Am                   F         G
Broke your throne and cut your hair
    Am                 E           Am
And from your lips she drew "Hallelujah"


     F
     Am
     F
     C  G  C     Am7 C Am7
Hallelu-   jah

     C              Am7
Well baby I've been here before
C                     Am7
I know this room and I walked this floor
            F             G            C       Am7
You know, I used to live alone before I knew ya
         C                     F      G
And I've seen your flag on the marble arch
Am7               F       G
But love is not a victory march
       Am              E             Am
It's a cold and it's a broken "Hallelujah"

          F
Well Hallelujah
     Am
     F
     C  G  F
Hallelu-   jah
                  E
Oh it's just hallelujah
               Am     F   G
It's just hallelujah

C               Am7
Maybe there's a God above
C              Am7
But all I ever learned from love
    F                G           C        Am7
Was how to shoot somebody who out drew ya
         C                  F       G
And it's not a cry that you hear at night
     Am                 F        G
It's not somebody who's seen the light
       Am                  E            Am
It's a cold and it's a broken "Hallelujah"

          F
Well hallelujah
     Am
     F
     C   G
Hallelu- u-  jah


There you have it. Just listen for changes in strumming/picking between verses, they're
based of the main pattern. I think that in this recording he probably only plays E
and not E major/G# as I have noted above, which is more like the original. Here's the 
Cohen chord progression, which Street To Nowhere altered only slightly:

Verse:
I vi I vi
IV V I V
I IV, V vi IV
V III7/bVI (or V6/5 of vi) vi vi
Chorus:
IV vi IV I, V I V
(according to Wikipedia.com)





Comments


Popular Street To Nowhere tabs & chords
Georgia, Can You Hear Me? Chords
Dead Cliche Tabs
Miss Rolling Eyes Tabs
Miss Rolling Eyes Intro Tabs
Georgia Can You Hear Me Ukulele


Song lyrics



↑ Back to top | Tablatures and chords are parodies/interpretations of the original songs. You may use it for private study, scholarship, research or language learning purposes only
© 2014 AZChords.com Contact us | Privacy policy | DMCA | Add/correct tabs | Request tabs | Top 50 tabs