» » »

Streetlight Manifesto, A Moment Of Silence Tabs (ver.1)

Artists:  A B C D E F G H I J K L M N O P Q R S T U V W X Y Z # 

A Moment Of Silence Tabs (ver.1)

Streetlight Manifesto Tabs
 Rating:
4.2/5 (5 votes)
A Moment Of Silence lessons Tabs too difficult? Try these video lessons and learn fast
1
                Kick-ass song by a kick-ass ska band

Standard Tuning

Intro after horns, lightly palm muted
e|-----------------------------------------------------------------------------|
B|---88--8--88--8--88--8/10--10-10---------------------------------------------|
G|---99--9--99--9--99--9/11--11-11---------------------------------------------|
D|-----------------------------------------------------------------------------|
A|-----------------------------------------------------------------------------|
E|-----------------------------------------------------------------------------|

Verse    (upstrokes for most)                                Play this every 4th time
e|--7-----7------8-------10-10-10----|----7-----7------8--8--8------7--------------|
B|--8-----8------8-------10-10-10----|----8-----8------8--8--8------7--------------|
G|--9-----9------9-------11-11-11----|----9-----9------9--9--9------8--------------|
D|----------------10------12-12-12---|----------------10-10-10------9--------------|
A|-----------------------------------|---------------------------------------------|
E|-----------------------------------|---------------------------------------------|

Chorus     I'm not sure about a strum pattern but these are the chords you play:
e|---7-------8-------7--------10---this last chord could also played as: --5-------------|
B|---8-------8-------8--------10------------------------------------------------------7--|
G|---9-------9-------7--------11------------------------------------------------------7--|
D|-----------10---------------12---------------------------------------------------------|
A|---------------------------------------------------------------------------------------|
E|---------------------------------------------------------------------------------------|

And thats it, sometimes he randomly picks the chords in the verse though.
            
Submit corrections

comments powered by Disqus
↑ Back to top | Streetlight Manifesto Tabs for A Moment Of Silence. Lyrics for acoustic guitar and electric guitar. 1 Tablatures and chords are parodies/interpretations of the original songs. You may use it for private study, scholarship, research or language learning purposes only