» » »

Streetheart, One More Time Tabs (ver.1)

Artists:  A B C D E F G H I J K L M N O P Q R S T U V W X Y Z # 

One More Time Tabs (ver.1)

Streetheart Tabs
Rating:
0/5 (0 votes)
One More Time lessons Tabs too difficult? Try these video lessons and learn fast
                -------------------------------------------------------------------------------
-------------------------------------------------------------------------------
Tuning: EADGBe

INTRO
e|----------------------------------------------|
B|----------------------------------------------|
G|----------------------------------------------|
D|-9~--9-7~--7-9~--9-7~--7-9~--9-7~--7-9~--9-7~-|
A|-9~--9-7~--7-9~--9-7~--7-9~--9-7~--7-9~--9-7~-|
E|-7~--7-5~--5-7~--7-5~--7-9~--9-7~--7-9~--9-7~-|

VERSE - Play 8 Times
e|------------------------------|
B|------------------------------|
G|------------------------------|
D|-9-----------9-7-----------7--|
A|-9-----------9-7-----------7--|
E|-7-7-7-7-7-7-7-5-5-5-5-5-5-5--|
     \---pm---/    \---pm---/

PRE-CHORUS - Play 4 Times
e|----------------------------------|
B|----------------------------------|
G|----------------------------------|
D|-5-5-5-5-5-5-5-5-7-7-7-7-7-7-7-7--|
A|-5-5-5-5-5-5-5-5-7-7-7-7-7-7-7-7--|
E|-3-3-3-3-3-3-3-3-5-5-5-5-5-5-5-5--|

CHORUS - Play 4 Times
e|----------------------------------|
B|----------------------------------|
G|----------------------------------|
D|-9-9-9-9-9-9-9-9-7-7-7-7-7-7-7-7--|
A|-9-9-9-9-9-9-9-9-7-7-7-7-7-7-7-7--|
E|-7-7-7-7-7-7-7-7-5-5-5-5-5-5-5-5--|

VERSE - Play 8 Times
e|------------------------------|
B|------------------------------|
G|------------------------------|
D|-9-----------9-7-----------7--|
A|-9-----------9-7-----------7--|
E|-7-7-7-7-7-7-7-5-5-5-5-5-5-5--|
     \---pm---/    \---pm---/

PRE-CHORUS - Play 4 Times
e|----------------------------------|
B|----------------------------------|
G|----------------------------------|
D|-5-5-5-5-5-5-5-5-7-7-7-7-7-7-7-7--|
A|-5-5-5-5-5-5-5-5-7-7-7-7-7-7-7-7--|
E|-3-3-3-3-3-3-3-3-5-5-5-5-5-5-5-5--|

CHORUS - Play 4 Times
e|----------------------------------|
B|----------------------------------|
G|----------------------------------|
D|-9-9-9-9-9-9-9-9-7-7-7-7-7-7-7-7--|
A|-9-9-9-9-9-9-9-9-7-7-7-7-7-7-7-7--|
E|-7-7-7-7-7-7-7-7-5-5-5-5-5-5-5-5--|

BRIDGE
e|---------10-10---------------------------------------------10-10--------|
B|---------10-10-9-------------------------------------------10-10-9------|
G|-9-9-9-9-9--9--9-9---------------------------------9-9-9-9-9--9--9-9-9--|
D|-9-9-9-9-------9-9-5-5-5-5-5-5-5-5-5-5-5-5-5-5-5-5-9-9-9-9-------9-9-9--|
A|-7-7-7-7---------7-5-5-5-5-5-5-5-5-5-5-5-5-5-5-5-5-7-7-7-7---------7-7--|
E|-------------------3-3-3-3-3-3-3-3-2-2-2-2-2-2-2-2----------------------|

e|--------------------------------------------------|
B|--------------------------------------------------|
G|-12-12-12-12-12-12-12-12-14-14-14-14-14-14-14-14--|
D|-12-12-12-12-12-12-12-12-14-14-14-14-14-14-14-14--|
A|-10-10-10-10-10-10-10-10-12-12-12-12-12-12-12-12--|
E|--------------------------------------------------|

VERSE - Play 8 Times
e|------------------------------|
B|------------------------------|
G|------------------------------|
D|-9-----------9-7-----------7--|
A|-9-----------9-7-----------7--|
E|-7-7-7-7-7-7-7-5-5-5-5-5-5-5--|
     \---pm---/    \---pm---/

CHORUS (bass only)

CHORUS - Repeat and fade
e|----------------------------------|
B|----------------------------------|
G|----------------------------------|
D|-9-9-9-9-9-9-9-9-7-7-7-7-7-7-7-7--|
A|-9-9-9-9-9-9-9-9-7-7-7-7-7-7-7-7--|
E|-7-7-7-7-7-7-7-7-5-5-5-5-5-5-5-5--|

Song Arrangement:
INTRO
VERSE 1
PRE-CHORUS
CHORUS
VERSE 2
PRE-CHORUS
CHORUS
BRIDGE
VERSE 1
PRE-CHORUS
CHORUS (bass only)
CHORUS


 pm palm mute
 ~  vibrato

===============================================================================
            

comments powered by Disqus
↑ Back to top | Streetheart Tabs for One More Time. Lyrics for acoustic guitar and electric guitar. Tablatures and chords are parodies/interpretations of the original songs. You may use it for private study, scholarship, research or language learning purposes only