» » »

Passion Bass tabs (ver.1)

Artists:  A B C D E F G H I J K L M N O P Q R S T U V W X Y Z # 

Passion Bass tabs (ver.1)

Stream Of Passion
Rating:
0/5 (0 votes)

Hard to play? Try these video lessons and learn fast.
                Intro:
G-]-------------------------------------------------------------------------|
D-]-------------------------------------------------------------------------|
A-]-------------------------------5-----4-----------------------------------|
E-]-1-2-3-4-5-4-3-2-1-1-2-3-4-4-3---3-2---2-1-------------------------------|

Coupl: (play it 2 times)                                1x in the second the             
                                          time you go
                                                           to refr.
G-]----------------------------------1------------------------[------------]
D-]---------------7---------------1---1----------------7------[------------]
A-]-----------5-7--7----------2-4-------2----------5-7---7----[--5-----4-2-]
E-]-1-2-3-4-5-------1-1-2-3-4-------------1-2-3-4-5-------4-4-[3--3-2-----1]

Refr:
G-]------------------------------------------------------------------------|
D-]------------------------------------------------------------------------|
A-]---------------------------2-2-2-2-(6x)-5-5-5-5-(5x)-4-4-4-4------------|
E-]-3-3-3-3-(6x)-0-0-0-0-(6x)----------------------------------------------|

After that play the same thing again but:
play the 5s only 2 times in the 5th thing:p and do the same with the 4s.

just keep repeating this there is nothing difrent in this song...
you maby must repeat something more times.
            
Hard to play? Try these video lessons and learn fast. | Correct




comments powered by Disqus
↑ Back to top | Tablatures and chords are parodies/interpretations of the original songs. You may use it for private study, scholarship, research or language learning purposes only