>
 >
Rock This Town

Rock This Town Bass Tabs

Stray Cats - Rock This Town chords, tabs, tablatures, lyrics

Guitar lessons | Add/correct | Request | Top 50 tabs Artists:  A B C D E F G H I J K L M N O P Q R S T U V W X Y Z 0-9

Rock This Town Bass Tabs – Stray Cats

CD, Sheet music, Poster

Do you like Rock This Town? Share with your friends now
Bass TabsChordsTabsUkulele
Fairly easy... enjoy!

     W                   W                 
G||-------------------|-------------------|
D||-------------------|-------------------|
A||-------------------|-------------------|
E||-------------------|-------------------|


  W                   W                 
-------------------|-------------------|
-------------------|-------------------|
-------------------|-------------------|
-------------------|-------------------|


  Q    E  E  Q    Q       E  E  Q    Q    Q     
-----------------------|-----------------------|
-------4--4--5----6----|--7--7--6----5----4----|
--5--------------------|-----------------------|
-----------------------|-----------------------|


  E  E  Q    E  E  E  E     E  E  E  E  Q    Q     
-------------------------|------------------------|
--------4----5--5--6--6--|--7--7--6--6--5----4----|
--5--5-------------------|------------------------|
-------------------------|------------------------|


  Q    Q    Q    Q       E  E  Q    Q    E  E   
----------------------|------------------------|
-------4----5----6----|--7--7--6----5----4--4--|
--5-------------------|------------------------|
----------------------|------------------------|


  Q    Q    Q    Q       E  E  Q    Q    E  E   
----------------------|------------------------|
-------4----5----6----|--7--7--6----5----4--4--|
--5-------------------|------------------------|
----------------------|------------------------|


  Q    E  E  Q    E  E     E  E  Q    Q    Q     
------------------------|-----------------------|
-------4--4--5----6--6--|--7--7--6----5----4----|
--5---------------------|-----------------------|
------------------------|-----------------------|


  Q    E  E  Q    Q       E  E  Q    Q    Q     
-----------------------|-----------------------|
-------4--4--5----6----|--7--7--6----5----4----|
--5--------------------|-----------------------|
-----------------------|-----------------------|


  Q    E  E  Q    Q       E  E  Q    Q    Q     
-----------------------|-----------------------|
-------4--4--5----6----|--7--7--6----5----4----|
--5--------------------|-----------------------|
-----------------------|-----------------------|


  Q    Q    Q    Q       Q    Q    Q    Q     
----------------------|----------------------|
-------4--------------|----------------------|
------------7----4----|-------4----7----6----|
--5-------------------|--5-------------------|


  Q    Q    Q    Q       Q    Q    E  E  Q     
----------------------|-----------------------|
----------------------|-------2----3--3--4----|
--5----3----2----3----|--5--------------------|
----------------------|-----------------------|


  Q    Q    Q    Q       Q    Q    Q    Q     
----------------------|----------------------|
--5----3--------------|----------------------|
------------5----2----|-------5----4----2----|
----------------------|--0-------------------|


  Q    Q    Q    Q       Q    Q    Q    Q     
----------------------|----------------------|
-------4----5----7----|------------5----4----|
--5-------------------|----------------------|
----------------------|--5----5--------------|


  Q    Q    Q    Q       Q    Q    Q    Q     
----------------------|----------------------|
-------4----5----6----|--7----6----5----4----|
--5-------------------|----------------------|
----------------------|----------------------|


  Q    Q    Q    Q       Q    Q    Q    Q     
----------------------|----------------------|
-------4----5----6----|--7----6----5----4----|
--5-------------------|----------------------|
----------------------|----------------------|


  Q    Q    Q    Q       Q    Q    Q    Q     
----------------------|----------------------|
-------4----5----6----|--7----6----5----4----|
--5-------------------|----------------------|
----------------------|----------------------|


  Q    Q    Q    Q       Q    Q    Q    Q     
----------------------|----------------------|
-------4----5----6----|--7----6----5----4----|
--5-------------------|----------------------|
----------------------|----------------------|


  Q    Q    Q    Q       Q    Q    Q    Q     
----------------------|----------------------|
-------4----5----6----|--7----6----5----4----|
--5-------------------|----------------------|
----------------------|----------------------|


  Q    Q    Q    Q       Q    Q    Q    Q     
----------------------|----------------------|
-------4----5----6----|--7----6----5----4----|
--5-------------------|----------------------|
----------------------|----------------------|


  Q    Q    Q    Q       Q    Q    Q    Q     
----------------------|----------------------|
-------4----5----6----|--7----6----5----4----|
--5-------------------|----------------------|
----------------------|----------------------|


  Q    Q    Q    Q       Q    Q    Q    Q     
----------------------|----------------------|
--7----4--------------|----------------------|
------------7----4----|-------4----7----6----|
----------------------|--5-------------------|


  Q    Q    Q    Q       Q    E  E  E  E  Q     
----------------------|------------------------|
----------------------|------------------------|
--5----3----2---------|--5----3--3--2--2-------|
-----------------5----|-------------------5----|


  Q    Q    Q    Q       Q    Q    Q    Q     
----------------------|----------------------|
-----------------2----|----------------------|
-------2----5---------|------------2----4----|
--3-------------------|--0-------------------|


  Q    Q    Q    Q       Q    Q    Q    Q     
----------------------|----------------------|
-------4----5----6----|-------7----5----4----|
--5-------------------|----------------------|
----------------------|--5-------------------|


  Q    Q    Q    Q       Q    Q    Q    Q     
----------------------|----------------------|
-------4----5----6----|--7----6----5----4----|
--5-------------------|----------------------|
----------------------|----------------------|


  Q    Q    Q    Q       Q    Q    Q    Q     
----------------------|----------------------|
-------4----5----6----|--7----6----5----4----|
--5-------------------|----------------------|
----------------------|----------------------|


  Q    Q    Q    Q       Q    Q    Q    Q     
----------------------|----------------------|
-------4----5----6----|--7----6----5----4----|
--5-------------------|----------------------|
----------------------|----------------------|


  Q    Q    Q    Q       Q    Q    Q    Q     
----------------------|----------------------|
-------4----5----6----|--7----6----5----5----|
--5-------------------|----------------------|
----------------------|----------------------|


  Q    Q    Q    Q       Q    Q    Q    Q     
----------------------|----------------------|
-------4--------------|----------------------|
------------7----4----|-------4----7----6----|
--5-------------------|--5-------------------|


  E  E  E  E  Q    Q       E  E  E  E  E  E  Q     
------------------------|-------------------------|
------------------------|--------2--2--3--3--4----|
--5--5--3--3--2---------|--5--5-------------------|
-------------------5----|-------------------------|


  Q    Q    H           Q    Q    Q    Q     
---------------------|----------------------|
---------------------|----------------------|
---------------------|--7----5----3----2----|
--3------------------|----------------------|


  Q    Q    Q    Q       Q    Q    Q    Q     
----------------------|----------------------|
-------4----5----6----|--7----6----5----4----|
--5-------------------|----------------------|
----------------------|----------------------|


  1.                                           
  Q    E  E  Q    Q       Q    Q    Q    Q     
-----------------------|----------------------|
-------4--4--5----6----|--7----6----5----4----|
--5--------------------|----------------------|
-----------------------|----------------------|


  Q    E  E  Q    Q       Q    Q    Q    Q     
-----------------------|----------------------|
-------4--4--5----6----|--7----6----5----4----|
--5--------------------|----------------------|
-----------------------|----------------------|


  Q    Q    Q    Q       E  E  Q    Q    Q     
----------------------|-----------------------|
-------4----5----6----|--7--7--6----5----4----|
--5-------------------|-----------------------|
----------------------|-----------------------|


  Q    E  E  Q    Q       Q    Q    Q    Q     
-----------------------|----------------------|
-------4--4--5----6----|--7----6----5----4----|
--5--------------------|----------------------|
-----------------------|----------------------|


  Q    Q    E  E  Q       E  E  Q    E  E  Q     
-----------------------|------------------------|
-----------------------|------------------------|
-------4----7--7--4----|--------2----3--3--4----|
--5--------------------|--5--5------------------|


  Q    E  E  Q    Q       Q    E  E  Q    Q     
-----------------------|-----------------------|
-----------------------|-----------------------|
--5----3--3--2---------|--5----3--3--2---------|
------------------5----|------------------5----|


  Q    Q    Q    Q       E  E  Q    Q    Q     
----------------------|-----------------------|
----------------------|-----------------------|
-------2----3----5----|--7--7--5----3----2----|
--3-------------------|-----------------------|


  Q    E  E  Q    Q       Q    Q    E  E  E  E   
-----------------------|------------------------|
-----------------------|------------------------|
--5----3--3--2---------|-------2----3--3--4--4--|
------------------6----|--5---------------------|


  Q    Q    Q    Q       Q    Q    Q    Q     
----------------------|----------------------|
-------4----5----6----|--7----6----5----4----|
--5-------------------|----------------------|
----------------------|----------------------|


  Q    Q    Q    Q       Q    Q    Q    Q     
----------------------|----------------------|
-------4----5----6----|--7----6----5----4----|
--5-------------------|----------------------|
----------------------|----------------------|


  Q    Q    Q    Q       Q    Q    Q    Q     
----------------------|----------------------|
-------4----5----6----|--7----6----5----4----|
--5-------------------|----------------------|
----------------------|----------------------|


  Q    Q    Q    Q       Q    Q    Q    Q     
----------------------|----------------------|
-------4----5----6----|--7----6----5----4----|
--5-------------------|----------------------|
----------------------|----------------------|


  Q    Q    Q    Q       Q    Q    Q    Q     
----------------------|----------------------|
-------4----5----6----|--7----6----5----4----|
--5-------------------|----------------------|
----------------------|----------------------|


  Q    Q    Q    Q       Q    Q    Q    Q     
----------------------|----------------------|
-------4----5----6----|--7----6----5----4----|
--5-------------------|----------------------|
----------------------|----------------------|


  Q    Q    Q    Q       Q    Q    Q    Q     
----------------------|----------------------|
-------4----5----6----|--7----6----5----4----|
--5-------------------|----------------------|
----------------------|----------------------|


  Q    Q    Q    Q       Q    Q    Q    Q     
----------------------|----------------------|
--7----4--------------|----------------------|
------------7----4----|-------4----7----6----|
----------------------|--5-------------------|


  Q    Q    Q    Q       Q    E  E  E  E  Q     
----------------------|------------------------|
----------------------|------------------------|
--5----3----2---------|--5----3--3--2--2-------|
-----------------5----|-------------------5----|


  Q    Q    Q    Q       Q    Q    Q    Q     
----------------------|----------------------|
-----------------2----|----------------------|
-------2----5---------|------------2----4----|
--3-------------------|--0-------------------|


  Q    Q    Q    Q       Q    Q    Q    Q     
----------------------|----------------------|
-------4----5----6----|-------7----5----4----|
--5-------------------|----------------------|
----------------------|--5-------------------|


  Q    Q    Q    Q       Q    Q    Q    Q     
----------------------|----------------------|
-------4----5----6----|--7----6----5----4----|
--5-------------------|----------------------|
----------------------|----------------------|


  Q    Q    Q    Q       Q    Q    Q    Q     
----------------------|----------------------|
-------4----5----6----|--7----6----5----4----|
--5-------------------|----------------------|
----------------------|----------------------|


  Q    Q    Q    Q       Q    Q    Q    Q     
----------------------|----------------------|
-------4----5----6----|--7----6----5----4----|
--5-------------------|----------------------|
----------------------|----------------------|


  Q    Q    Q    Q       Q    Q    Q    Q     
----------------------|----------------------|
-------4----5----6----|--7----6----5----5----|
--5-------------------|----------------------|
----------------------|----------------------|


  Q    Q    Q    Q       Q    Q    Q    Q     
----------------------|----------------------|
-------4--------------|----------------------|
------------7----4----|-------4----7----6----|
--5-------------------|--5-------------------|


  E  E  E  E  Q    Q       E  E  E  E  E  E  Q     
------------------------|-------------------------|
------------------------|--------2--2--3--3--4----|
--5--5--3--3--2---------|--5--5-------------------|
-------------------5----|-------------------------|


  Q    Q    H           Q    Q    Q    Q     
---------------------|----------------------|
---------------------|----------------------|
---------------------|--7----5----3----2----|
--3------------------|----------------------|


  Q    Q    Q    Q       Q    Q    Q    Q     
----------------------|----------------------|
-------4----5----6----|--7----6----5----4----|
--5-------------------|----------------------|
----------------------|----------------------|


  1.                                            
  Q    E  E  Q    Q       Q    Q    Q    E  E   
-----------------------|-----------------------|
-------4--4--5----6----|--7----6----5----4--4--|
--5--------------------|-----------------------|
-----------------------|-----------------------|


  Q    Q    Q    Q       Q    Q    Q    E  E   
----------------------|-----------------------|
-------4----5----6----|--7----6----5----4--4--|
--5-------------------|-----------------------|
----------------------|-----------------------|


  Q    Q    Q    Q       Q    Q    Q    E  E   
----------------------|-----------------------|
-------4----5----6----|--7----6----5----4--4--|
--5-------------------|-----------------------|
----------------------|-----------------------|


  E  E  Q    Q    Q       Q    Q    Q    E  E   
------------------4----|--5----4---------------|
--------4----7---------|------------7----4-----|
--5--5-----------------|--------------------0--|
-----------------------|-----------------------|


  E  E  Q    Q    Q       Q    Q    Q    Q     
-----------------------|----------------------|
-----------------------|----------------------|
--L--0--0----7----4----|-------4----7----6----|
-----------------------|--5-------------------|


  Q    E  E  Q    Q       Q    E  E  Q    Q     
-----------------------|-----------------------|
-----------------------|-----------------------|
--5----3--3--2---------|--5----3--3--2---------|
------------------5----|------------------5----|


  Q    E  E  Q    Q       Q    Q    Q    Q     
-----------------------|----------------------|
-------------5----3----|--2-------------------|
----------5------------|-------5----3----2----|
--3----3---------------|----------------------|


  Q    E  E  E  E  Q       Q    Q    Q    Q     
------------------------|----------------------|
-------4--4--5--5--6----|--7----6----5----4----|
--5---------------------|----------------------|
------------------------|----------------------|


  Q    Q    Q    Q       Q    Q    Q    Q     
----------------------|----------------------|
-------4----5----6----|--7----6----5----4----|
--5-------------------|----------------------|
----------------------|----------------------|


  Q    Q    Q    Q       Q    Q    Q    Q     
----------------------|----------------------|
-------4----5----6----|--7----6----5----4----|
--5-------------------|----------------------|
----------------------|----------------------|


  Q    Q    Q    Q       Q    Q    Q    Q     
----------------------|----------------------|
-------4----5----6----|--7----6----5----4----|
--5-------------------|----------------------|
----------------------|----------------------|


  Q    Q    Q    Q       Q    Q    Q    Q     
----------------------|----------------------|
-------4----5----6----|--7----6----5----4----|
--5-------------------|----------------------|
----------------------|----------------------|


  Q    Q    Q    Q       Q    Q    Q    Q     
----------------------|----------------------|
-------4----5----6----|--7----6----5----4----|
--5-------------------|----------------------|
----------------------|----------------------|


  Q    Q    Q    Q       Q    Q    Q    Q     
----------------------|----------------------|
-------4----5----6----|--7----6----5----4----|
--5-------------------|----------------------|
----------------------|----------------------|


  Q    Q    Q    Q       Q    Q    Q    Q     
----------------------|----------------------|
-------4----5----6----|--7----6----5----5----|
--5-------------------|----------------------|
----------------------|----------------------|


  Q    Q    Q    Q       Q    Q    Q    Q     
----------------------|----------------------|
-------4--------------|----------------------|
------------7----4----|-------4----7----6----|
--5-------------------|--5-------------------|


  E  E  E  E  Q    Q       E  E  E  E  E  E  Q     
------------------------|-------------------------|
------------------------|--------2--2--3--3--4----|
--5--5--3--3--2---------|--5--5-------------------|
-------------------5----|-------------------------|


  Q    Q    H           Q    Q    Q    Q     
---------------------|----------------------|
---------------------|----------------------|
---------------------|--7----5----3----2----|
--3------------------|----------------------|


  Q    Q    Q    Q       Q    Q    Q    Q     
----------------------|----------------------|
-------4----5----6----|--7----6----5----4----|
--5-------------------|----------------------|
----------------------|----------------------|


  Q    Q    Q    Q       Q    Q    Q    Q     
----------------------|----------------------|
-------4----5----6----|--7----6----5----4----|
--5-------------------|----------------------|
----------------------|----------------------|


  Q    Q    Q    Q       Q    Q    Q    Q     
----------------------|----------------------|
-------4----5----6----|--7----6----5----4----|
--5-------------------|----------------------|
----------------------|----------------------|


  Q    Q    Q    Q       Q    Q    Q    Q     
----------------------|----------------------|
-------4----5----6----|-------5----4---------|
--5-------------------|-----------------7----|
----------------------|--5-------------------|


  Q    Q    Q    Q       Q    Q    Q    Q     
----------------------|----------------------|
-------4----5----6----|--7----6----5----4----|
--5-------------------|----------------------|
----------------------|----------------------|


  Q    Q    Q    Q       Q    Q    Q    Q     
----------------------|----------------------|
-------4----5----6----|--7----6----5----4----|
--5-------------------|----------------------|
----------------------|----------------------|


  Q    Q    Q    Q       Q    Q    Q    Q     
----------------------|----------------------|
-------4----5----6----|-------5----4---------|
--5-------------------|-----------------7----|
----------------------|--5-------------------|


  Q    E  E  Q    Q       E  E  E  E  Q    Q     
-----------------------|-----4--6--7------------|
-------4--4--5----6----|--7---------------------|
--5--------------------|------------------------|
-----------------------|------------------------|


  W                  
  W                  
--7----------------||
-------------------||
-------------------||
-------------------||




Duration Legend
---------------
W - whole
H - half
Q - quarter
E - 8th
S - 16th
T - 32nd
X - 64th
. - note dotted
|-n-|  - n-tuplets


Tablature Legend
----------------
L - tied note
x - dead note
g - grace note
(n) - ghost note
> - accentuded note
NH - natural harmonic
AH - artificial harmonic
TH - tapped harmonic
SH - semi harmonic
PH - pitch harmonic
h - hammer on
p - pull off
b - bend
br - bendRelease
pb - preBend
pbr - preBendRelease
brb - bendReleaseBend
\n/ - tremolo bar dip
\n - tremolo bar dive
-/n - tremolo bar Release up
/n\ - tremolo bar inverted dip
/n - tremolo bar return
-\n - tremolo bar Release down
S - shift slide
s - legato slide
/ -  slide into from below or out of upwards
\ -  slide into from above or out of downwards
~ - vibrato
W - wide vibrato
tr - trill
TP - tremolo picking
T - tapping
S - slap
P - pop
< - fade in
^ - brush up
v - brush down





Comments


Popular Stray Cats tabs & chords
Baby Blue Eyes Bass Tabs
I Wont Stand In Your Way 1 Chords
Lookin Better Every Beer 1 Chords
Those Lonely Summer Nights Chords
My One Desire 1 Tabs
You Cant Hurry Love Tabs
Gonna Ball Ukulele
Jeanie Jeanie Jeanie Ukulele
Lookin Better Every Beer Ukulele
Summertime Blues Ukulele


Song lyrics



↑ Back to top | Tablatures and chords are parodies/interpretations of the original songs. You may use it for private study, scholarship, research or language learning purposes only
© 2014 AZChords.com Contact us | Privacy policy | DMCA | Add/correct tabs | Request tabs | Top 50 tabs