» » »

Stray Cats, Race With The Devil Bass tabs (ver.1)

Artists:  A B C D E F G H I J K L M N O P Q R S T U V W X Y Z # 

Race With The Devil Bass tabs (ver.1)

Stray Cats Tabs
 Rating:
4/5 (4 votes)
Race With The Devil lessons Tabs too difficult? Try these video lessons and learn fast
                This is me playing this song on my upright bass!


Intro
  E
|---|---|-----------------|
|---|---|---------2-------|
|---|---|-----2-4---4-2---|
|-0-|---|-0-4-----------4-|

Verse 1 & 2
  E                  
|---|---|---|---------|
|---|---|---|---------|
|---|---|---|---------|
|-0-|-0-|-0-|-0-2-3-4-|
  A               E                 B       A       E
|---------2-----------------------|---------------------------------|
|-----2-4-----2-----------2-------|---1-4-2-----2-----------2-------|
|-0-4-------4---4-----2-4---4-2---|-2-------0-4---4-----2-4---4-2---|
|-----------------0-4-----------4-|-----------------0-4-----------4-|

Solo 1
  E                                 A               E
|---------------------------------|---------------------------------|
|---------2---------------2-------|-----2-------2-4---------2-------|
|-----2-4---4-2-------2-4---4-2---|-0-4---4-0-4---------2-4---4-2---|
|-0-4-----------4-0-4-----------4-|-----------------0-4-----------4-|
  B       A       E           *PT2* E
|---------------------------------|---------------------------------|
|---1-4-1-----2-----------2-------|---------2---------------2-1-----|
|-2-------0-4---4-----2-4---4-2---|-----2-4---4-2-------2-4-----4-3-|
|-----------------0-4-----------4-|-0-4-----------4-0-4-------------|
  A               E                 B       A       E
|---------------------------------|---------------------------------|
|-----2-4-----2-----------2-------|---1-4-2-----------------2-------|
|-0-4-----0-4---4-----2-4---4-2---|-2-------0-0-0-0-----2-4---4-2---|
|-----------------0-4-----------4-|-----------------0-4-----------4-|

Verse 3
  E                  
|---|---|---|---------|
|---|---|---|---------|
|---|---|---|---------|
|-0-|-0-|-0-|-0-2-3-4-|
  A               E                 B       A       E
|---------------------------------|---------------------------------|
|-----2-4-----2-0---------2-------|---1-4-1-----------------2-------|
|-0-4-----0-4---------2-4---4-2---|-2-------0-0-0-0-----2-4---4-2---|
|-----------------0-4-----------4-|-----------------0-4-----------4-|

Solo 2
  E                                 A               E
|---------------------------------|---------------------------------|
|---------2-----------------------|---------------------------------|
|-----2-4---4-2-------2-4-----2---|-0-------0-----------2-4-----2---|
|-0-4-----------4-0-4-----0-4---4-|---3-2-3---3-2-1-0-4-----0-4---4-|
  B       A       E           *PT2* E
|---------------------------------|---------------------------------|
|---1-4-1-----------------2-------|---------------------------------|
|-2-------0-0-0-0-----2-4---4-2---|-----2-4-------2-----2-4-------2-|
|-----------------0-4-----------4-|-0-4-----0-0-0---0-4-----0-0-0---|
  A               E                 B       A       E
|---------------------------------|---------------------------------|
|-----2-4-------2---------2-------|---1-4-2-------2---------2-------|
|-0-4-----0-0-4-------2-4---4-2---|-2-------0-0-4-------2-4---4-2---|
|-----------------0-4-----------4-|-----------------0-4-----------4-|

Verse 4
  E                  
|---|---|---|---------|
|---|---|---|---------|
|---|---|---|---------|
|-0-|-0-|-0-|-0-2-3-4-|
  A               E                 B       A       E
|---------------------------------|---------------------------------|
|-----2-4-----2-----------2-------|---1-4-2-------2---------2-------|
|-0-4-----0-4---4-----2-4---4-2---|-2-------0-0-4-------2-4---4-2---|
|-----------------0-4-----------4-|-----------------0-4-----------4-|

Solo 3
  F#                                B               F#
|---------------------------------|---------------------------------|
|---------------1-------1---------|---1-4-1---1-4-1-----------------|
|---1-4-1---1-4-----1-4-----1-4-1-|-2-------2---------1-4-1---1-4-1-|
|-2-------2-------2-------2-------|-----------------2-------2-------|
  C#      B       F#          *PT2* F#
|---------------------------------|---------------------------------|
|---3-6-----1-4-1---------------1-|-------1-------------------------|
|-4-----1-2---------1-4-1---1-4---|---1-4-----1-4-1---1-4-1---1-4-1-|
|-----------------2-------2-------|-2-------2-------2-------2-------|
  B               F#                C       B       F#
|---------------------------------|---------------------------------|
|---1-4-1---1-4-1-------1-2-1-----|---3-6-----1-4-1-----------------|
|-2-------2---------1-4-------4-1-|-4-----1-2---------1-4-3-4-3-1---|
|-----------------2---------------|-----------------2-------------4-|
  F#                                B               F#
|---------------------------------|---------------------------------|
|-------1-2-1-----------1-4-3-2---|---1-4-1---1-4-1-------1-2-1-----|
|---1-4-------4-1---1-4---------4-|-2-------2---------1-4-------4-1-|
|-2---------------2---------------|-----------------2---------------|
  C#      B       F#
|---------------------------------|
|---3-6-----1-4-1-----------------|
|-4-----1-2---------1-4-3-4-3-2-1-|
|-----------------2---------------|

Verse 5
  F#
|---|---|---|---------|
|---|---|---|---------|
|---|---|---|-------1-|
|-2-|-2-|-2-|-2-3-4---|
  B               F#                C#      B       F#
|---------------------------------|---------------------------------|
|---1-4-1---1-4-2-------1-2-1-----|---3-6-----1-2-3-4---------------|
|-2-------2---------1-4-------4-1-|-4-----1-2---------1-2-3-4-1-----|
|-----------------2---------------|-----------------------------2-2-|
            
Submit corrections

comments powered by Disqus
↑ Back to top | Stray Cats Bass for Race With The Devil. Lyrics for acoustic guitar and electric guitar. Tablatures and chords are parodies/interpretations of the original songs. You may use it for private study, scholarship, research or language learning purposes only