» » »

Stray Cats, My One Desire Tabs (ver.1)

Artists:  A B C D E F G H I J K L M N O P Q R S T U V W X Y Z # 

My One Desire Tabs (ver.1)

Stray Cats Tabs
Rating:
3/5 (3 votes)
My One Desire lessons Tabs too difficult? Try these video lessons and learn fast
                -----------------------------------------------------------------------
                     MY ONE DESIRE- STRAY CATS
-----------------------------------------------------------------------
Tuning: Standard
| /  slide up the fretboard
| \  slide down the fretboard
| h  hammer-on
| p  pull-off
| ~  vibrato
| bp bend/pull off
| b  bend
| x  Mute note
this is my very first tab it’s harder than I thought but I think I did a really good job 
tabbing this song out listen to the song and play along with this and it sounds just 
it

INTRO  [use alternate picking]
e|--------------------------------------------------------------------|
B|--------------------------------------------------------------------|
G|--------------------------------------------------------------------|
D|--------------------------------------------------------------------|
A|-9-9-------------9-9------------------------------------------------|
E|-7-7—-2-2-6-6----7-7—-2-2-6-6---------------------------------------|
        X X X X         X X X X


RIFF 1
e|--------------------------------------------------------------------|
B|---7-7--6-6--7-7----------------------------------------------------|
G|---6-6--5-5—-6-6---8b-6---------------------------------------------|
D|-8-----7----8-------------------------------------------------------|
A|--------------------------------------------------------------------|
E|--------------------------------------------------------------------|

RIFF 2
e|--------------------------------------------------------------------|
B|----7-------9-------------------------------------------------------|
G|---8------8---------------------------------------------------------|
D|-9---9--9----9------------------------------------------------------|
A|--------------------------------------------------------------------|
E|--------------------------------------------------------------------|
RIFF 3
e|--------------------------------------------------------------------|
B|--------------------------------------------------------------------|
G|--------------------------------------------------------------------|
D|----4---------------------------------------------------------------|
A|-7~---7bp5----------------------------------------------------------|
E|-----------7--------------------------------------------------------|


SOLO 1
e|--------------------------------------------------------------------|
B|---------------------7----------------------------------------------|
G|--------------7~--9b---9b-7-9bp7-----7------------------------------|
D|----------7-9--------------------9--9--9-7-9—-9\11------------------|
A|------7\9-----------------------------------------------------------|
E|-6-6~---------------------------------------------------------------|


e|--------------------------------------------------------------------|
B|-12-12-12-12-12-12---12-12--------------7-7--6-6--7-7---------------|
G|-11-11-11-11-11-11---13-11—13p12--------6-6--5-5--6-6---8b-6--------|
D|----------------------------------9---8----7-----8------------------|
A|--------------------------------------------------------------------|
E|--------------------------------------------------------------------|


e|--------------------------------------------------------------------|
B|-12b----12b----12b--------------------------------------------------|
G|-11b-11-11b-11-11b-11---11------------------------------------------|
D|----------------------12b---9b-9-7---------7-9-7--------------------|
A|-----------------------------------9-7-7h9b------9-7-7~-------------|
E|--------------------------------------------------------------------|

e|--------------------------------------------------------------------|
B|--------------------------------------------------------------------|
G|--------------------------------------------------------------------|
D|--7-10p9p7-10-------------------------------------------------------|
A|--------------10-10~--(I couldn’t figure out this little part)------|
E|--------------------------------------------------------------------|

SOLO 2
e|--------------------------------------------------------------------|
B|--------------7----------7-7/--6-6\-7-7-----------------------------|
G|-----------9b---9b-7-----6-6/--5-5\-6-6—-8b-6-----------------------|
D|-9-9-4-4-8------------9-9-----8----9--------------------------------|
A|--------------------------------------------------------------------|
E|--------------------------------------------------------------------|

TAPPING PART
Use 2 hands

e|--------------------------------------------------------------------|
B|-h12p7h9h12p7h9p7h12p7h9h12p7h912-----------------------------------|
G|----------------------------------h11p7h9h11p7h9h11p7h9h11-7~/------|
D|--------------------------------------------------------------------|
A|--------------------------------------------------------------------|
E|--------------------------------------------------------------------|


e|--------------------------------------------------------------------|
B|--------------------------------------------------------------------|
G|--------------------------------------------------------------------|
D|-9~-9-7-------------------------------------------------------------|
A|--------9-7-7h9h12p7h9h12p7h9h12p7h9h12-(and so on)-----------------|
E|--------------------------------------------------------------------|
            
Submit corrections

comments powered by Disqus
↑ Back to top | Stray Cats Tabs for My One Desire. Lyrics for acoustic guitar and electric guitar. Tablatures and chords are parodies/interpretations of the original songs. You may use it for private study, scholarship, research or language learning purposes only