» » »

Stratovarius, Eagleheart Tabs (ver.2)

Artists:  A B C D E F G H I J K L M N O P Q R S T U V W X Y Z # 

Eagleheart Tabs (ver.2)

Stratovarius Tabs
 Rating:
4/5 (4 votes)
Eagleheart lessons Tabs too difficult? Try these video lessons and learn fast
                stratovarius - eagleheart


This is the intro of "Eagleheart".

|-------------------------------------------------------------------------
|----------11-11-11/9-8-------9-9-8-------9/11/9-8-6-----6/8-9h8----------
|-10/12-12--------------10-----------10-8------------8-6---------10-------
|-------------------------------------------------------------------------
|-------------------------------------------------------------------------
|-------------------------------------------------------------------------

|----------------------------------------------------------------------------
|----------11-11-11/9-8-------9-9-8-------9/11/9-8-6-------------------------
|-10/12-12--------------10-----------10-8------------8---8/12---10/12/10---8-
|----------------------------------------------------------------------------
|----------------------------------------------------------------------------
|----------------------------------------------------------------------------


After this, the song has a BASE...but, I think you should use your ear a
little bit...so do by yourself you nb!


And here is the SOLO =D

|-11-10-8--------------------8-10-11-13-15---11---------------------------------------15-18/16-16-15-15-13-13-11-10---
|---------8----------------8------------------13----------------------------13-15-16----------------------------------
|-----------8h7--------7-8-----------------------12----------------------12-------------------------------------------
|---------------10-9-10-----------------------------13-12----------12-13----------------------------------------------
|---------------------------------------------------------15-14-15----------------------------------------------------
|---------------------------------------------------------------------------------------------------------------------

Final Riff

|---------------------------------------------------------------------------
|-------11-11-11/9-8-------9-9-8-------9/11/9-8-6-----6/8-9/8---------------
|-10/12-12--------------10-----------10-8------------8----------10----------
|---------------------------------------------------------------------------
|---------------------------------------------------------------------------
|---------------------------------------------------------------------------
|----------------------------------------------------------------------------
|-------11-11-11/9-8-------9-9-8-------9/11/9-8-6----------------------------
|-10/12-12--------------10-----------10-8------------8---8/12---10/12/10---8-
|----------------------------------------------------------------------------
|----------------------------------------------------------------------------
|----------------------------------------------------------------------------


|--------18-18-18/16------16-16-15--------16/18/16-15-13----13/15-16/15---
|-20-20--------------18-------------18-16----------------16-------------18
|-------------------------------------------------------------------------
|-------------------------------------------------------------------------
|-------------------------------------------------------------------------
|-------------------------------------------------------------------------
            
Submit corrections

comments powered by Disqus
↑ Back to top | Stratovarius Tabs for Eagleheart. Lyrics for acoustic guitar and electric guitar. Tablatures and chords are parodies/interpretations of the original songs. You may use it for private study, scholarship, research or language learning purposes only