» » »

Strapping Young Lad, Undernearth The Waves Tabs (ver.1)

Artists:  A B C D E F G H I J K L M N O P Q R S T U V W X Y Z # 

Undernearth The Waves Tabs (ver.1)

Strapping Young Lad Tabs
Rating:
0/5 (0 votes)
Undernearth The Waves lessons Tabs too difficult? Try these video lessons and learn fast
                Tuning (low to high): CGCGBE

Riff A                           Riff A2
------------------------------|--------------------------|--------------|
------------------------------|--------------------------|--------------|
------------------------------|--------------------------|--------------|
------------4--------------5--|--------------4-----3--3--|--------------|
0--0--0--0--2--0--0--0--0--3--|--0--0--0--0--2--0--1--1--|--------------|
0--0--0--0-----0--0--0--0-----|--0--0--0--0-----0--------|--------------|


Riff A3              Riff CRiff C2
------------------|-----|--------------|--------------------------------|
------------------|-----|--------------|--------------------------------|
------------------|-----|--------------|--------------------------------|
4--4--4--4--4--4--|-----|--------------|--------------------------------|
2--2--2--2--2--2--|-----|--0--0--0--0--|--------------------------------|
------------------|--22\|--0--0--0--0--|--------------------------------|


Riff D                        Riff D2
---------------------------|--------------------|-----------------------|
---------------------------|--------------------|-----------------------|
---------------------------|--------------------|-----------------------|
---------------------------|--------------------|-----------------------|
8--5--5--8--5--8--8--5--5--|--8--8--8--8--8--8--|-----------------------|
8--5--5--8--5--8--8--5--5--|--8--8--8--8--8--8--|-----------------------|


Riff E                  Chorus Riff
---------------------|-----|-----|--------------------------------------|
---------------------|-----|-----|--------------------------------------|
---------------------|-----|-----|--------------------------------------|
---------------------|-----|-----|--------------------------------------|
0--0--0--0--0--0--0--|--4--|--0--|--------------------------------------|
0--0--0--0--0--0--0--|--4--|--0--|--------------------------------------|


Chorus Riff 2
------------------------------------|-----------------------------------|
------------------------------------|-----------------------------------|
------------------------------------|-----------------------------------|
------------------------------------|-----------------------------------|
------4--------4--------4--------4--|-----------------------------------|
0--0--4--0--0--4--0--0--4--0--0--4--|-----------------------------------|

------------------------------------|-----------------------------------|
------------------------------------|-----------------------------------|
------------------------------------|-----------------------------------|
------------------------------------|-----------------------------------|
------0--------0--------0--------0--|-----------------------------------|
0--0--0--0--0--0--0--0--0--0--0--0--|-----------------------------------|


Riff F
------------------------------------|-----------------------------------|
------------------------------------|-----------------------------------|
------------------------------------|-----------------------------------|
------------------------------------|-----------------------------------|
2--0--6--2--0--6--2--0--6--2--3--0--|-----------------------------------|
2--0--6--2--0--6--2--0--6--2--3--0--|-----------------------------------|


Riff G
------------------------------------|-----------------------------------|
------------------------------------|-----------------------------------|
------------------------------------|-----------------------------------|
------------------------------------|-----------------------------------|
2--0--6--2--0--6--2--3--0--2--3--0--|-----------------------------------|
2--0--6--2--0--6--2--3--0--2--3--0--|-----------------------------------|


Riff H
---------------------------------------------|--------------------------|
---------------------------------------------|--------------------------|
---------------------------------------------|--------------------------|
---------------------------------------------|--------------------------|
2--0--6--2--0--6--2--2--2--2--2--2--2--2--2--|--------------------------|
2--0--6--2--0--6--2--2--2--2--2--2--2--2--2--|--------------------------|


hit them power chords
---------------------------------------------|--------------------------|
---------------------------------------------|--------------------------|
---------------------------------------------|--------------------------|
---------------------------------------------|--------------------------|
0--0--0--0--0--0--0--0--0--0--0--0--0--0--0--|--------------------------|
0--0--0--0--0--0--0--0--0--0--0--0--0--0--0--|--------------------------|


hit em again
---------------------------------------------------------|--------------|
---------------------------------------------------------|--------------|
---------------------------------------------------------|--------------|
---------------------------------------------------------|--------------|
4--4--4--4--4--4--4--4--4--4--4--4--4--4--4--4--4--4--4--|--------------|
4--4--4--4--4--4--4--4--4--4--4--4--4--4--4--4--4--4--4--|--------------|


Riff I
---7--5--7--5-----------7--5--7--5-----------7--5--7--5-----------------|
0--------------0--0--0--------------0--0--0--------------0--0--0--0-----|


               Riff J
------------|--------------------|--------------------------------------|
------------|--------------------|--------------------------------------|
------------|--------------------|--------------------------------------|
------------|--------------------|--------------------------------------|
------------|--2--3--4--2--3--4--|--------------------------------------|
0--0--0--0--|--2--3--4--2--3--4--|--------------------------------------|


Riff K
---------------------------------------------------|--------------------|
---------------------------------------------------|--------------------|
---------------------------------------------------|--------------------|
---------------------------------------------------|--------------------|
3--3--3--3--3--3--3--3--3--3--3--3--3--3--3--3--2--|--------------------|
3--3--3--3--3--3--3--3--3--3--3--3--3--3--3--3--2--|--------------------|


Riff L                                 end
------------------------------------|--------|--------------------------|
------------------------------------|--------|--------------------------|
------------------------------------|--------|--------------------------|
------------------------------------|--------|--------------------------|
2--0--6--2--0--6--2--0--6--2--0--6--|--2--2--|--------------------------|
2--0--6--2--0--6--2--0--6--2--0--6--|--2--2--|--------------------------|
            

comments powered by Disqus
↑ Back to top | Strapping Young Lad Tabs for Undernearth The Waves. Lyrics for acoustic guitar and electric guitar. Tablatures and chords are parodies/interpretations of the original songs. You may use it for private study, scholarship, research or language learning purposes only