» » »

Strapping Young Lad, Spirituality Tabs (ver.1)

Artists:  A B C D E F G H I J K L M N O P Q R S T U V W X Y Z # 

Spirituality Tabs (ver.1)

Strapping Young Lad Tabs
 Rating:
4.2/5 (5 votes)
Spirituality lessons Tabs too difficult? Try these video lessons and learn fast
1
                Tuning (Low to high): B F# B F# B D#


Riff A Riff B     Riff C                 Riff D
----------|----------|-------------------|--------------------------|
----------|----------|-------------------|--------------------------|
----------|----------|-------------------|--------------------------|
----10----|--10--10--|--10-10-10-10--10--|--6--6-6--6-6--6--10--10--|
----10----|--10--10--|--10-10-10-10--10--|--6--6-6--6-6--6--10--10--|
----10----|--10--10--|--10-10-10-10--10--|--6--6-6--6-6--6--10--10--|


Riff E                                     Riff F
------------------------------------------|-------|
------------------------------------------|-------|
------------------------------------------|-------|
6--6-6/8--8--8-8/10--10--10--10-10-10-10--|--10\--|
6--6-6/8--8--8-8/10--10--10--10-10-10-10--|--10\--|
6--6-6/8--8--8-8/10--10--10--10-10-10-10--|--10\--|


Riff G
---------------------------------|-----------------------|
---------------------------------|-----------------------|
---------------------------------|-----------------------|
---------------------------------|-----------------------|
0-0-0-0-0-0-0-0-0-0-0-0-0-0-0-0--|-----------------------|
0-0-0-0-0-0-0-0-0-0-0-0-0-0-0-0--|-----------------------|


Riff H
----------------------------------------------------|------------|
----------------------------------------------------|------------|
----------------------------------------------------|------------|
2-2--2--2--2-2-2--2--2-2-2--2-2--2--2--2-2--10--10--|------------|
2-2--2--2--2-2-2--2--2-2-2--2-2--2--2--2-2--10--10--|------------|
2-2--2--2--2-2-2--2--2-2-2--2-2--2--2--2-2--10--10--|------------|


Riff I
-----------------------------|---------------------------------------|
-----------------------------|---------------------------------------|
-----------------------------|---------------------------------------|
12--12-12--12-12--12-12--10--|---------------------------------------|
12--12-12--12-12--12-12--10--|---------------------------------------|
12--12-12--12-12--12-12--10--|---------------------------------------|


Riff J
----------------------------------|-------------------------------|
----------------------------------|-------------------------------|
----------------------------------|-------------------------------|
12--12-12--12-12--12-12-12-12-12--|-------------------------------|
12--12-12--12-12--12-12-12-12-12--|-------------------------------|
12--12-12--12-12--12-12-12-12-12--|-------------------------------|


Riff K
-----------------------------|---------------------------------------|
-----------------------------|---------------------------------------|
-----------------------------|---------------------------------------|
10--10-10--10-10--10-10--12--|---------------------------------------|
10--10-10--10-10--10-10--12--|---------------------------------------|
10--10-10--10-10--10-10--12--|---------------------------------------|


Riff L
----------------------------------|-------------------------------|
----------------------------------|-------------------------------|
----------------------------------|-------------------------------|
10--10-10--10-10--10-10-10-10-10--|-------------------------------|
10--10-10--10-10--10-10-10-10-10--|-------------------------------|
10--10-10--10-10--10-10-10-10-10--|-------------------------------|


Riff M                                               End Riff
----------------------------------------------------|--------|
----------------------------------------------------|--------|
----------------------------------------------------|--------|
12--12-12/14--14--14-14/16--16--16--16--14--12--12--|---10---|
12--12-12/14--14--14-14/16--16--16--16--14--12--12--|---10---|
12--12-12/14--14--14-14/16--16--16--16--14--12--12--|---10---|
            
Submit corrections

comments powered by Disqus
↑ Back to top | Strapping Young Lad Tabs for Spirituality. Lyrics for acoustic guitar and electric guitar. 1 Tablatures and chords are parodies/interpretations of the original songs. You may use it for private study, scholarship, research or language learning purposes only